  0
SECTION
  2
HEADER
  9
$ACADVER
  1
AC1015
  9
$ACADMAINTVER
 70
     6
  9
$DWGCODEPAGE
  3
ANSI_1254
  9
$INSBASE
 10
0.0
 20
0.0
 30
0.0
  9
$EXTMIN
 10
0.0
 20
0.0
 30
0.0
  9
$EXTMAX
 10
279.4
 20
215.9
 30
0.0
  9
$LIMMIN
 10
0.0
 20
0.0
  9
$LIMMAX
 10
279.4
 20
215.9
  9
$ORTHOMODE
 70
     0
  9
$REGENMODE
 70
     1
  9
$FILLMODE
 70
     1
  9
$QTEXTMODE
 70
     0
  9
$MIRRTEXT
 70
     1
  9
$LTSCALE
 40
1.0
  9
$ATTMODE
 70
     1
  9
$TEXTSIZE
 40
3.5
  9
$TRACEWID
 40
1.0
  9
$TEXTSTYLE
  7
Standard
  9
$CLAYER
  8
0
  9
$CELTYPE
  6
ByLayer
  9
$CECOLOR
 62
   256
  9
$CELTSCALE
 40
1.0
  9
$DISPSILH
 70
     0
  9
$DIMSCALE
 40
1.0
  9
$DIMASZ
 40
3.5
  9
$DIMEXO
 40
1.0
  9
$DIMDLI
 40
3.75
  9
$DIMRND
 40
0.0
  9
$DIMDLE
 40
0.0
  9
$DIMEXE
 40
1.0
  9
$DIMTP
 40
0.0
  9
$DIMTM
 40
0.0
  9
$DIMTXT
 40
3.5
  9
$DIMCEN
 40
2.5
  9
$DIMTSZ
 40
0.0
  9
$DIMTOL
 70
     0
  9
$DIMLIM
 70
     0
  9
$DIMTIH
 70
     1
  9
$DIMTOH
 70
     1
  9
$DIMSE1
 70
     0
  9
$DIMSE2
 70
     0
  9
$DIMTAD
 70
     1
  9
$DIMZIN
 70
     0
  9
$DIMBLK
  1

  9
$DIMASO
 70
     1
  9
$DIMSHO
 70
     1
  9
$DIMPOST
  1

  9
$DIMAPOST
  1

  9
$DIMALT
 70
     0
  9
$DIMALTD
 70
     3
  9
$DIMALTF
 40
0.0393700787
  9
$DIMLFAC
 40
1.0
  9
$DIMTOFL
 70
     1
  9
$DIMTVP
 40
0.0
  9
$DIMTIX
 70
     0
  9
$DIMSOXD
 70
     0
  9
$DIMSAH
 70
     0
  9
$DIMBLK1
  1

  9
$DIMBLK2
  1

  9
$DIMSTYLE
  2
ISO-25
  9
$DIMCLRD
 70
     0
  9
$DIMCLRE
 70
     0
  9
$DIMCLRT
 70
     0
  9
$DIMTFAC
 40
1.0
  9
$DIMGAP
 40
1.524
  9
$DIMJUST
 70
     0
  9
$DIMSD1
 70
     0
  9
$DIMSD2
 70
     0
  9
$DIMTOLJ
 70
     0
  9
$DIMTZIN
 70
     0
  9
$DIMALTZ
 70
     0
  9
$DIMALTTZ
 70
     0
  9
$DIMUPT
 70
     0
  9
$DIMDEC
 70
     2
  9
$DIMTDEC
 70
     2
  9
$DIMALTU
 70
     2
  9
$DIMALTTD
 70
     3
  9
$DIMTXSTY
  7
Standard
  9
$DIMAUNIT
 70
     0
  9
$DIMADEC
 70
     2
  9
$DIMALTRND
 40
0.0
  9
$DIMAZIN
 70
     0
  9
$DIMDSEP
 70
    44
  9
$DIMATFIT
 70
     3
  9
$DIMFRAC
 70
     0
  9
$DIMLDRBLK
  1

  9
$DIMLUNIT
 70
     2
  9
$DIMLWD
 70
    -2
  9
$DIMLWE
 70
    -2
  9
$DIMTMOVE
 70
     0
  9
$LUNITS
 70
     2
  9
$LUPREC
 70
     2
  9
$SKETCHINC
 40
1.0
  9
$FILLETRAD
 40
10.0
  9
$AUNITS
 70
     0
  9
$AUPREC
 70
     2
  9
$MENU
  1
.
  9
$ELEVATION
 40
0.0
  9
$PELEVATION
 40
0.0
  9
$THICKNESS
 40
0.0
  9
$LIMCHECK
 70
     0
  9
$CHAMFERA
 40
0.0
  9
$CHAMFERB
 40
0.0
  9
$CHAMFERC
 40
0.0
  9
$CHAMFERD
 40
0.0
  9
$SKPOLY
 70
     0
  9
$TDCREATE
 40
2458985.666007789
  9
$TDUCREATE
 40
2458985.541007789
  9
$TDUPDATE
 40
2458985.666008056
  9
$TDUUPDATE
 40
2458985.541008056
  9
$TDINDWG
 40
0.0000000116
  9
$TDUSRTIMER
 40
0.0000000116
  9
$USRTIMER
 70
     1
  9
$ANGBASE
 50
0.0
  9
$ANGDIR
 70
     0
  9
$PDMODE
 70
     0
  9
$PDSIZE
 40
-1.0
  9
$PLINEWID
 40
0.0
  9
$SPLFRAME
 70
     0
  9
$SPLINETYPE
 70
     6
  9
$SPLINESEGS
 70
     8
  9
$HANDSEED
  5
D2
  9
$SURFTAB1
 70
     6
  9
$SURFTAB2
 70
     6
  9
$SURFTYPE
 70
     6
  9
$SURFU
 70
     6
  9
$SURFV
 70
     6
  9
$UCSBASE
  2

  9
$UCSNAME
  2

  9
$UCSORG
 10
0.0
 20
0.0
 30
0.0
  9
$UCSXDIR
 10
1.0
 20
0.0
 30
0.0
  9
$UCSYDIR
 10
0.0
 20
1.0
 30
0.0
  9
$UCSORTHOREF
  2

  9
$UCSORTHOVIEW
 70
     0
  9
$UCSORGTOP
 10
0.0
 20
0.0
 30
0.0
  9
$UCSORGBOTTOM
 10
0.0
 20
0.0
 30
0.0
  9
$UCSORGLEFT
 10
0.0
 20
0.0
 30
0.0
  9
$UCSORGRIGHT
 10
0.0
 20
0.0
 30
0.0
  9
$UCSORGFRONT
 10
0.0
 20
0.0
 30
0.0
  9
$UCSORGBACK
 10
0.0
 20
0.0
 30
0.0
  9
$PUCSBASE
  2

  9
$PUCSNAME
  2

  9
$PUCSORG
 10
0.0
 20
0.0
 30
0.0
  9
$PUCSXDIR
 10
1.0
 20
0.0
 30
0.0
  9
$PUCSYDIR
 10
0.0
 20
1.0
 30
0.0
  9
$PUCSORTHOREF
  2

  9
$PUCSORTHOVIEW
 70
     0
  9
$PUCSORGTOP
 10
0.0
 20
0.0
 30
0.0
  9
$PUCSORGBOTTOM
 10
0.0
 20
0.0
 30
0.0
  9
$PUCSORGLEFT
 10
0.0
 20
0.0
 30
0.0
  9
$PUCSORGRIGHT
 10
0.0
 20
0.0
 30
0.0
  9
$PUCSORGFRONT
 10
0.0
 20
0.0
 30
0.0
  9
$PUCSORGBACK
 10
0.0
 20
0.0
 30
0.0
  9
$USERI1
 70
     0
  9
$USERI2
 70
     0
  9
$USERI3
 70
     0
  9
$USERI4
 70
     0
  9
$USERI5
 70
     0
  9
$USERR1
 40
0.0
  9
$USERR2
 40
0.0
  9
$USERR3
 40
0.0
  9
$USERR4
 40
0.0
  9
$USERR5
 40
0.0
  9
$WORLDVIEW
 70
     1
  9
$SHADEDGE
 70
     3
  9
$SHADEDIF
 70
    70
  9
$TILEMODE
 70
     1
  9
$MAXACTVP
 70
    64
  9
$PINSBASE
 10
0.0
 20
0.0
 30
0.0
  9
$PLIMCHECK
 70
     0
  9
$PEXTMIN
 10
1.0000000000E+20
 20
1.0000000000E+20
 30
1.0000000000E+20
  9
$PEXTMAX
 10
-1.0000000000E+20
 20
-1.0000000000E+20
 30
-1.0000000000E+20
  9
$PLIMMIN
 10
0.0
 20
0.0
  9
$PLIMMAX
 10
420.0
 20
297.0
  9
$UNITMODE
 70
     0
  9
$VISRETAIN
 70
     1
  9
$PLINEGEN
 70
     0
  9
$PSLTSCALE
 70
     1
  9
$TREEDEPTH
 70
  3020
  9
$CMLSTYLE
  2
Standard
  9
$CMLJUST
 70
     0
  9
$CMLSCALE
 40
20.0
  9
$PROXYGRAPHICS
 70
     1
  9
$MEASUREMENT
 70
     1
  9
$CELWEIGHT
370
    -1
  9
$ENDCAPS
280
     0
  9
$JOINSTYLE
280
     0
  9
$LWDISPLAY
290
     1
  9
$INSUNITS
 70
     4
  9
$HYPERLINKBASE
  1

  9
$STYLESHEET
  1

  9
$XEDIT
290
     1
  9
$CEPSNTYPE
380
     0
  9
$PSTYLEMODE
290
     1
  9
$FINGERPRINTGUID
  2
{739c579c-f62c-4472-a604-557b27e110cf}
  9
$VERSIONGUID
  2
{FAEB1C32-E019-11D5-929B-00C0DF256EC4}
  9
$EXTNAMES
290
     1
  9
$PSVPSCALE
 40
0.0
  9
$OLESTARTUP
290
     0
  0
ENDSEC
  0
SECTION
  2
CLASSES
  0
CLASS
  1
ACDBDICTIONARYWDFLT
  2
AcDbDictionaryWithDefault
  3
ObjectDBX Classes
 90
        0
280
     0
281
     0
  0
CLASS
  1
VISUALSTYLE
  2
AcDbVisualStyle
  3
ObjectDBX Classes
 90
     4095
280
     0
281
     0
  0
CLASS
  1
MATERIAL
  2
AcDbMaterial
  3
ObjectDBX Classes
 90
     1153
280
     0
281
     0
  0
CLASS
  1
SCALE
  2
AcDbScale
  3
ObjectDBX Classes
 90
     1153
280
     0
281
     0
  0
CLASS
  1
TABLESTYLE
  2
AcDbTableStyle
  3
ObjectDBX Classes
 90
     4095
280
     0
281
     0
  0
CLASS
  1
MLEADERSTYLE
  2
AcDbMLeaderStyle
  3
ACDB_MLEADERSTYLE_CLASS
 90
     4095
280
     0
281
     0
  0
CLASS
  1
SUN
  2
AcDbSun
  3
SCENEOE
 90
     1153
280
     0
281
     0
  0
CLASS
  1
ACDBPLACEHOLDER
  2
AcDbPlaceHolder
  3
ObjectDBX Classes
 90
        0
280
     0
281
     0
  0
CLASS
  1
LAYOUT
  2
AcDbLayout
  3
ObjectDBX Classes
 90
        0
280
     0
281
     0
  0
ENDSEC
  0
SECTION
  2
TABLES
  0
TABLE
  2
VPORT
  5
8
330
0
100
AcDbSymbolTable
 70
     1
  0
VPORT
  5
29
330
8
100
AcDbSymbolTableRecord
100
AcDbViewportTableRecord
  2
*Active
 70
     0
 10
0.0
 20
0.0
 11
1.0
 21
1.0
 12
139.7
 22
107.95
 13
0.0
 23
0.0
 14
10.0
 24
10.0
 15
10.0
 25
10.0
 16
0.0
 26
0.0
 36
1.0
 17
0.0
 27
0.0
 37
0.0
 40
215.9
 41
1.2941176471
 42
50.0
 43
0.0
 44
0.0
 50
0.0
 51
0.0
 71
     0
 72
  2000
 73
     1
 74
     3
 75
     0
 76
     0
 77
     0
 78
     0
281
     0
 65
     1
110
0.0
120
0.0
130
0.0
111
1.0
121
0.0
131
0.0
112
0.0
122
1.0
132
0.0
 79
     0
146
0.0
  0
ENDTAB
  0
TABLE
  2
LTYPE
  5
5
330
0
100
AcDbSymbolTable
 70
     6
  0
LTYPE
  5
14
330
5
100
AcDbSymbolTableRecord
100
AcDbLinetypeTableRecord
  2
ByBlock
 70
     0
  3

 72
    65
 73
     0
 40
0.0
  0
LTYPE
  5
15
330
5
100
AcDbSymbolTableRecord
100
AcDbLinetypeTableRecord
  2
ByLayer
 70
     0
  3

 72
    65
 73
     0
 40
0.0
  0
LTYPE
  5
16
330
5
100
AcDbSymbolTableRecord
100
AcDbLinetypeTableRecord
  2
Continuous
 70
     0
  3
Solid line
 72
    65
 73
     0
 40
0.0
  0
LTYPE
  5
6E
330
5
100
AcDbSymbolTableRecord
100
AcDbLinetypeTableRecord
  2
HIDDEN
 70
     0
  3
Hidden __ __ __ __ __ __ __ __ __ __ __ __ __ __
 72
    65
 73
     2
 40
1.905
 49
1.27
 74
     0
 49
-0.635
 74
     0
  0
LTYPE
  5
6F
330
5
100
AcDbSymbolTableRecord
100
AcDbLinetypeTableRecord
  2
PHANTOM
 70
     0
  3
Phantom ______  __  __  ______  __  __  ______
 72
    65
 73
     6
 40
12.7
 49
6.35
 74
     0
 49
-1.27
 74
     0
 49
1.27
 74
     0
 49
-1.27
 74
     0
 49
1.27
 74
     0
 49
-1.27
 74
     0
  0
LTYPE
  5
70
330
5
100
AcDbSymbolTableRecord
100
AcDbLinetypeTableRecord
  2
CENTER
 70
     0
  3
Center ____ _ ____ _ ____ _ ____ _ ____ _ ____
 72
    65
 73
     4
 40
10.16
 49
6.35
 74
     0
 49
-1.27
 74
     0
 49
1.27
 74
     0
 49
-1.27
 74
     0
  0
LTYPE
  5
71
330
5
100
AcDbSymbolTableRecord
100
AcDbLinetypeTableRecord
  2
CENTERX2
 70
     0
  3
Center (2x) ________  __  ________  __  _____
 72
    65
 73
     4
 40
20.32
 49
12.7
 74
     0
 49
-2.54
 74
     0
 49
2.54
 74
     0
 49
-2.54
 74
     0
  0
LTYPE
  5
72
330
5
100
AcDbSymbolTableRecord
100
AcDbLinetypeTableRecord
  2
DOT2
 70
     0
  3
Dot (.5x) ........................................
 72
    65
 73
     2
 40
0.635
 49
0.0
 74
     0
 49
-0.635
 74
     0
  0
ENDTAB
  0
TABLE
  2
LAYER
  5
2
330
0
100
AcDbSymbolTable
 70
    17
  0
LAYER
  5
10
330
2
100
AcDbSymbolTableRecord
100
AcDbLayerTableRecord
  2
0
 70
     0
 62
     7
  6
Continuous
370
    -3
390
F
  0
LAYER
  5
73
330
2
100
AcDbSymbolTableRecord
100
AcDbLayerTableRecord
  2
FORMAT
 70
     0
 62
     7
  6
Continuous
370
    -3
390
F
  0
LAYER
  5
74
330
2
100
AcDbSymbolTableRecord
100
AcDbLayerTableRecord
  2
YARDIMCI_GEOMETRI
 70
     0
 62
    -6
  6
Continuous
290
     0
370
    -3
390
F
  0
LAYER
  5
75
330
2
100
AcDbSymbolTableRecord
100
AcDbLayerTableRecord
  2
SAYFA_CERCEVESI
 70
     0
 62
     7
  6
Continuous
370
    25
390
F
  0
LAYER
  5
76
330
2
100
AcDbSymbolTableRecord
100
AcDbLayerTableRecord
  2
ANTET
 70
     0
 62
     7
  6
Continuous
370
    -3
390
F
  0
LAYER
  5
77
330
2
100
AcDbSymbolTableRecord
100
AcDbLayerTableRecord
  2
OLCU
 70
     0
 62
   150
  6
Continuous
370
    -3
390
F
  0
LAYER
  5
78
330
2
100
AcDbSymbolTableRecord
100
AcDbLayerTableRecord
  2
METIN
 70
     0
 62
    96
  6
Continuous
370
    -3
390
F
  0
LAYER
  5
79
330
2
100
AcDbSymbolTableRecord
100
AcDbLayerTableRecord
  2
BALON
 70
     0
 62
     5
  6
Continuous
370
    -3
390
F
  0
LAYER
  5
7A
330
2
100
AcDbSymbolTableRecord
100
AcDbLayerTableRecord
  2
VURGU
 70
     0
 62
     7
  6
Continuous
370
    -3
390
F
  0
LAYER
  5
7B
330
2
100
AcDbSymbolTableRecord
100
AcDbLayerTableRecord
  2
SILIK
 70
     0
 62
     7
  6
Continuous
370
    -3
390
F
  0
LAYER
  5
7C
330
2
100
AcDbSymbolTableRecord
100
AcDbLayerTableRecord
  2
MODEL
 70
     0
 62
     7
  6
Continuous
370
    -3
390
F
  0
LAYER
  5
7D
330
2
100
AcDbSymbolTableRecord
100
AcDbLayerTableRecord
  2
DETAYLANDıRMA
 70
     0
 62
   190
  6
Continuous
370
    -3
390
F
  0
LAYER
  5
7E
330
2
100
AcDbSymbolTableRecord
100
AcDbLayerTableRecord
  2
TOLERANS
 70
     0
 62
   230
  6
Continuous
370
    -3
390
F
  0
LAYER
  5
7F
330
2
100
AcDbSymbolTableRecord
100
AcDbLayerTableRecord
  2
MERKEZ_CIZGILERI
 70
     0
 62
    30
  6
Continuous
370
    -3
390
F
  0
LAYER
  5
80
330
2
100
AcDbSymbolTableRecord
100
AcDbLayerTableRecord
  2
KESIT-DETAY_CIZGILERI
 70
     0
 62
     7
  6
Continuous
370
    -3
390
F
  0
LAYER
  5
81
330
2
100
AcDbSymbolTableRecord
100
AcDbLayerTableRecord
  2
\U+041E\U+0421\U+0415\U+0412\U+042B\U+0415
 70
     0
 62
     7
  6
Continuous
370
    -3
390
F
  0
LAYER
  5
82
330
2
100
AcDbSymbolTableRecord
100
AcDbLayerTableRecord
  2
\U+0412\U+041E\U+0414\U+042F\U+041D\U+042B\U+0415_\U+0417\U+041D\U+0410\U+041A\U+0418
 70
     0
 62
    11
  6
Continuous
370
    -3
390
F
  0
ENDTAB
  0
TABLE
  2
STYLE
  5
3
330
0
100
AcDbSymbolTable
 70
     1
  0
STYLE
  5
11
330
3
100
AcDbSymbolTableRecord
100
AcDbTextStyleTableRecord
  2
Standard
 70
     0
 40
0.0
 41
1.0
 50
0.0
 71
     0
 42
3.5
  3
txt
  4

  0
ENDTAB
  0
TABLE
  2
VIEW
  5
6
330
0
100
AcDbSymbolTable
 70
     0
  0
ENDTAB
  0
TABLE
  2
UCS
  5
7
330
0
100
AcDbSymbolTable
 70
     0
  0
ENDTAB
  0
TABLE
  2
APPID
  5
9
330
0
100
AcDbSymbolTable
 70
     1
  0
APPID
  5
12
330
9
100
AcDbSymbolTableRecord
100
AcDbRegAppTableRecord
  2
ACAD
 70
     0
  0
ENDTAB
  0
TABLE
  2
DIMSTYLE
  5
A
330
0
100
AcDbSymbolTable
 70
     1
100
AcDbDimStyleTable
  0
DIMSTYLE
105
27
330
A
100
AcDbSymbolTableRecord
100
AcDbDimStyleTableRecord
  2
ISO-25
 70
     0
 41
2.5
 42
0.625
 43
3.75
 44
1.25
 73
     0
 74
     0
 77
     1
 78
     8
140
2.5
141
2.5
143
0.0393700787
147
0.625
171
     3
172
     1
178
     0
271
     2
272
     2
274
     3
278
    44
283
     0
284
     8
340
11
  0
ENDTAB
  0
TABLE
  2
BLOCK_RECORD
  5
1
330
0
100
AcDbSymbolTable
 70
     3
  0
BLOCK_RECORD
  5
1F
330
1
100
AcDbSymbolTableRecord
100
AcDbBlockTableRecord
  2
*Model_Space
340
22
  0
BLOCK_RECORD
  5
1B
330
1
100
AcDbSymbolTableRecord
100
AcDbBlockTableRecord
  2
*Paper_Space
340
1E
  0
BLOCK_RECORD
  5
23
330
1
100
AcDbSymbolTableRecord
100
AcDbBlockTableRecord
  2
*Paper_Space0
340
26
  0
BLOCK_RECORD
  5
93
330
1
100
AcDbSymbolTableRecord
100
AcDbBlockTableRecord
  2
SW_CENTERMARKSYMBOL_0
340
0
102
{BLKREFS
331
9E
102
}
  0
BLOCK_RECORD
  5
A5
330
1
100
AcDbSymbolTableRecord
100
AcDbBlockTableRecord
  2
SW_CENTERMARKSYMBOL_1
340
0
102
{BLKREFS
331
B0
102
}
  0
ENDTAB
  0
ENDSEC
  0
SECTION
  2
BLOCKS
  0
BLOCK
  5
20
330
1F
100
AcDbEntity
  8
0
100
AcDbBlockBegin
  2
*Model_Space
 70
     0
 10
0.0
 20
0.0
 30
0.0
  3
*Model_Space
  1

  0
ENDBLK
  5
21
330
1F
100
AcDbEntity
  8
0
100
AcDbBlockEnd
  0
BLOCK
  5
1C
330
1B
100
AcDbEntity
 67
     1
  8
0
100
AcDbBlockBegin
  2
*Paper_Space
 70
     0
 10
0.0
 20
0.0
 30
0.0
  3
*Paper_Space
  1

  0
ENDBLK
  5
1D
330
1B
100
AcDbEntity
 67
     1
  8
0
100
AcDbBlockEnd
  0
BLOCK
  5
24
330
23
100
AcDbEntity
  8
0
100
AcDbBlockBegin
  2
*Paper_Space0
 70
     0
 10
0.0
 20
0.0
 30
0.0
  3
*Paper_Space0
  1

  0
ENDBLK
  5
25
330
23
100
AcDbEntity
  8
0
100
AcDbBlockEnd
  0
BLOCK
  5
94
330
93
100
AcDbEntity
  8
0
100
AcDbBlockBegin
  2
SW_CENTERMARKSYMBOL_0
 70
     0
 10
0.0
 20
0.0
 30
0.0
  3
SW_CENTERMARKSYMBOL_0
  1

  0
LINE
  5
96
330
93
100
AcDbEntity
  8
FORMAT
 62
     0
100
AcDbLine
 10
0.0
 20
0.0
 30
0.0
 11
0.0
 21
2.5
 31
0.0
  0
LINE
  5
97
330
93
100
AcDbEntity
  8
FORMAT
 62
     0
100
AcDbLine
 10
0.0
 20
0.0
 30
0.0
 11
-2.5
 21
0.0
 31
0.0
  0
LINE
  5
98
330
93
100
AcDbEntity
  8
FORMAT
 62
     0
100
AcDbLine
 10
0.0
 20
0.0
 30
0.0
 11
0.0
 21
-2.5
 31
0.0
  0
LINE
  5
99
330
93
100
AcDbEntity
  8
FORMAT
 62
     0
100
AcDbLine
 10
0.0
 20
0.0
 30
0.0
 11
2.5
 21
0.0
 31
0.0
  0
LINE
  5
9A
330
93
100
AcDbEntity
  8
FORMAT
 62
     0
100
AcDbLine
 10
0.0
 20
5.0
 30
0.0
 11
0.0
 21
127.5
 31
0.0
  0
LINE
  5
9B
330
93
100
AcDbEntity
  8
FORMAT
 62
     0
100
AcDbLine
 10
-5.0
 20
0.0
 30
0.0
 11
-127.5
 21
0.0
 31
0.0
  0
LINE
  5
9C
330
93
100
AcDbEntity
  8
FORMAT
 62
     0
100
AcDbLine
 10
0.0
 20
-5.0
 30
0.0
 11
0.0
 21
-127.5
 31
0.0
  0
LINE
  5
9D
330
93
100
AcDbEntity
  8
FORMAT
 62
     0
100
AcDbLine
 10
5.0
 20
0.0
 30
0.0
 11
127.5
 21
0.0
 31
0.0
  0
ENDBLK
  5
95
330
93
100
AcDbEntity
  8
0
100
AcDbBlockEnd
  0
BLOCK
  5
A6
330
A5
100
AcDbEntity
  8
0
100
AcDbBlockBegin
  2
SW_CENTERMARKSYMBOL_1
 70
     0
 10
0.0
 20
0.0
 30
0.0
  3
SW_CENTERMARKSYMBOL_1
  1

  0
LINE
  5
A8
330
A5
100
AcDbEntity
  8
FORMAT
 62
     0
100
AcDbLine
 10
0.0
 20
0.0
 30
0.0
 11
0.0
 21
2.5
 31
0.0
  0
LINE
  5
A9
330
A5
100
AcDbEntity
  8
FORMAT
 62
     0
100
AcDbLine
 10
0.0
 20
0.0
 30
0.0
 11
-2.5
 21
0.0
 31
0.0
  0
LINE
  5
AA
330
A5
100
AcDbEntity
  8
FORMAT
 62
     0
100
AcDbLine
 10
0.0
 20
0.0
 30
0.0
 11
0.0
 21
-2.5
 31
0.0
  0
LINE
  5
AB
330
A5
100
AcDbEntity
  8
FORMAT
 62
     0
100
AcDbLine
 10
0.0
 20
0.0
 30
0.0
 11
2.5
 21
0.0
 31
0.0
  0
LINE
  5
AC
330
A5
100
AcDbEntity
  8
FORMAT
 62
     0
100
AcDbLine
 10
0.0
 20
5.0
 30
0.0
 11
0.0
 21
127.5
 31
0.0
  0
LINE
  5
AD
330
A5
100
AcDbEntity
  8
FORMAT
 62
     0
100
AcDbLine
 10
-5.0
 20
0.0
 30
0.0
 11
-127.5
 21
0.0
 31
0.0
  0
LINE
  5
AE
330
A5
100
AcDbEntity
  8
FORMAT
 62
     0
100
AcDbLine
 10
0.0
 20
-5.0
 30
0.0
 11
0.0
 21
-127.5
 31
0.0
  0
LINE
  5
AF
330
A5
100
AcDbEntity
  8
FORMAT
 62
     0
100
AcDbLine
 10
5.0
 20
0.0
 30
0.0
 11
127.5
 21
0.0
 31
0.0
  0
ENDBLK
  5
A7
330
A5
100
AcDbEntity
  8
0
100
AcDbBlockEnd
  0
ENDSEC
  0
SECTION
  2
ENTITIES
  0
LINE
  5
83
330
1F
100
AcDbEntity
  8
0
  6
Continuous
 62
     7
370
    25
100
AcDbLine
 10
10.624575235
 20
299.4888900271
 30
0.0
 11
10.624575235
 21
-59.0142728338
 31
0.0
  0
LINE
  5
84
330
1F
100
AcDbEntity
  8
0
  6
Continuous
 62
     7
370
    25
100
AcDbLine
 10
260.624575235
 20
-59.0142728338
 30
0.0
 11
260.624575235
 21
299.4888900271
 31
0.0
  0
LINE
  5
85
330
1F
100
AcDbEntity
  8
0
  6
Continuous
 62
     7
370
    25
100
AcDbLine
 10
260.624575235
 20
299.4888900271
 30
0.0
 11
260.624575235
 21
447.9856966486
 31
0.0
  0
LINE
  5
86
330
1F
100
AcDbEntity
  8
0
  6
Continuous
 62
     7
370
    25
100
AcDbLine
 10
260.624575235
 20
-281.0142756948
 30
0.0
 11
260.624575235
 21
-59.0142728338
 31
0.0
  0
LINE
  5
87
330
1F
100
AcDbEntity
  8
0
  6
Continuous
 62
     7
370
    25
100
AcDbLine
 10
10.624575235
 20
-59.0142728338
 30
0.0
 11
10.624575235
 21
-281.0142756948
 31
0.0
  0
LINE
  5
88
330
1F
100
AcDbEntity
  8
0
  6
Continuous
 62
     7
370
    25
100
AcDbLine
 10
10.624575235
 20
447.9856966486
 30
0.0
 11
10.624575235
 21
299.4888900271
 31
0.0
  0
LWPOLYLINE
  5
89
330
1F
100
AcDbEntity
  8
0
  6
Continuous
 62
     7
370
    25
100
AcDbPolyline
 90
      108
 70
   128
 43
0.0
 10
135.624575235
 20
371.8258617869
 10
129.6208321974
 20
371.7012284747
 10
123.6377850101
 20
371.3275669566
 10
117.6960587428
 20
370.7063673487
 10
111.8161369041
 20
369.8395966044
 10
106.0182850734
 20
368.7302945605
 10
100.322495021
 20
367.3823355189
 10
94.7483990268
 20
365.8003686419
 10
89.3152084128
 20
363.9897583476
 10
84.041657664
 20
361.9568227282
 10
78.9459224717
 20
359.7085355273
 10
74.0455713049
 20
357.2527049532
 10
69.35749463
 20
354.5976756564
 10
64.8978602067
 20
351.7527459612
 10
60.6820311324
 20
348.7275718203
 10
56.7245434896
 20
345.5327032557
 10
53.0390392915
 20
342.1791671267
 10
49.6382292286
 20
338.6784075251
 10
46.5338256136
 20
335.0425241938
 10
43.7365423814
 20
331.2841533175
 10
41.2560131327
 20
327.4161098948
 10
39.100791134
 20
323.4518645754
 10
37.2783120648
 20
319.4049476138
 10
35.7948493139
 20
315.289425706
 10
34.6555139796
 20
311.1194251528
 10
33.864247419
 20
306.9093106738
 10
33.4237690941
 20
302.6736258021
 10
33.3355989233
 20
298.4269736758
 10
33.6000349299
 20
294.1839574328
 10
34.2161755935
 20
289.9592398158
 10
35.1818900482
 20
285.767364358
 10
36.4938553349
 20
281.6228149882
 10
38.1475415007
 20
277.5398372164
 10
40.1372488514
 20
273.5325573435
 10
42.4561228529
 20
269.6146844378
 10
45.0961690322
 20
265.7998679629
 10
48.0482827798
 20
262.101161336
 10
51.3022940532
 20
258.5313199511
 10
54.8469748274
 20
255.1026819697
 10
58.6701210514
 20
251.8270491114
 10
62.758537747
 20
248.7156866541
 10
67.0981433169
 20
245.7793830386
 10
71.6739695445
 20
243.0282114497
 10
76.4702547268
 20
240.471649026
 10
81.4704511241
 20
238.1185768595
 10
86.6573292688
 20
235.9770415774
 10
92.0130077676
 20
234.0544341555
 10
97.5190240816
 20
232.3574303141
 10
103.1563978568
 20
230.8918117037
 10
108.9056961165
 20
229.6627043238
 10
114.7471003161
 20
228.6742208949
 10
120.6604724676
 20
227.9299376956
 10
126.6254296453
 20
227.4322389117
 10
132.6214094107
 20
227.1830318919
 10
138.6277410594
 20
227.1830318919
 10
144.6237208248
 20
227.4322389117
 10
150.5886780024
 20
227.9299376956
 10
156.502050154
 20
228.6742208949
 10
162.3434543536
 20
229.6627043238
 10
168.0927526132
 20
230.8918117037
 10
173.7301263884
 20
232.3574303141
 10
179.2361427025
 20
234.0544341555
 10
184.5918212012
 20
235.9770415774
 10
189.778699346
 20
238.1185768595
 10
194.7788957433
 20
240.471649026
 10
199.5751809255
 20
243.0282114497
 10
204.1510071532
 20
245.7793830386
 10
208.490612723
 20
248.7156866541
 10
212.5790294186
 20
251.8270491114
 10
216.4021756426
 20
255.1026819697
 10
219.9468564168
 20
258.5313199511
 10
223.2008676902
 20
262.101161336
 10
226.1529814378
 20
265.7998679629
 10
228.7930276171
 20
269.6146844378
 10
231.1119016186
 20
273.5325573435
 10
233.1016089693
 20
277.5398372164
 10
234.7552951352
 20
281.6228149882
 10
236.0672604219
 20
285.767364358
 10
237.0329748765
 20
289.9592398158
 10
237.6491155402
 20
294.1839574328
 10
237.9135515467
 20
298.4269736758
 10
237.8253813759
 20
302.6736258021
 10
237.384903051
 20
306.9093106738
 10
236.5936364905
 20
311.1194251528
 10
235.4543011562
 20
315.289425706
 10
233.9708384053
 20
319.4049476138
 10
232.148359336
 20
323.4518645754
 10
229.9931373373
 20
327.4161098948
 10
227.5126080886
 20
331.2841533175
 10
224.7153248564
 20
335.0425241938
 10
221.6109212414
 20
338.6784075251
 10
218.2101111785
 20
342.1791671267
 10
214.5246069805
 20
345.5327032557
 10
210.5671193377
 20
348.7275718203
 10
206.3512902633
 20
351.7527459612
 10
201.8916558401
 20
354.5976756564
 10
197.2035791651
 20
357.2527049532
 10
192.3032279984
 20
359.7085355273
 10
187.2074928061
 20
361.9568227282
 10
181.9339420573
 20
363.9897583476
 10
176.5007514433
 20
365.8003686419
 10
170.926655449
 20
367.3823355189
 10
165.2308653966
 20
368.7302945605
 10
159.4330135659
 20
369.8395966044
 10
153.5530917273
 20
370.7063673487
 10
147.6113654599
 20
371.3275669566
 10
141.6283182726
 20
371.7012284747
 10
135.624575235
 20
371.8258617869
  0
LWPOLYLINE
  5
8A
330
1F
100
AcDbEntity
  8
0
  6
Continuous
 62
     7
370
    25
100
AcDbPolyline
 90
      119
 70
   128
 43
0.0
 10
135.624575235
 20
387.877213811
 10
128.9718032741
 20
387.7519248477
 10
122.3378896639
 20
387.3764751902
 10
115.7416373418
 20
386.7518781176
 10
109.2017467991
 20
385.8799217692
 10
102.7367550806
 20
384.76310954
 10
96.3649850265
 20
383.4045408717
 10
90.1045042948
 20
381.8081496707
 10
83.9730527178
 20
379.9783466807
 10
77.9880125002
 20
377.9204367152
 10
72.1663486139
 20
375.6402014246
 10
66.5245678202
 20
373.1440781107
 10
61.0786553398
 20
370.4392193308
 10
55.8440487758
 20
367.5331948748
 10
50.8355971352
 20
364.4343493929
 10
46.0674863235
 20
361.1513851634
 10
41.5532316939
 20
357.6936005106
 10
37.3056333438
 20
354.0708302012
 10
33.3367314116
 20
350.2933858386
 10
29.6577688233
 20
346.3718770495
 10
26.2791912929
 20
342.3175095072
 10
23.2105579153
 20
338.1417273036
 10
20.4605784193
 20
333.8563917628
 10
18.0370386616
 20
329.4736026278
 10
15.9468229786
 20
325.005876874
 10
14.1958396808
 20
320.4657910815
 10
12.7890583054
 20
315.8662198535
 10
11.7304723636
 20
311.2202762118
 10
11.0230769888
 20
306.5410135737
 10
10.6688763873
 20
301.8417833796
 10
10.6688763873
 20
297.1359370699
 10
11.0230769888
 20
292.4367068759
 10
11.7304723636
 20
287.7574442378
 10
12.7890583054
 20
283.1115005961
 10
14.1958396808
 20
278.5119293681
 10
15.9468229786
 20
273.9718435755
 10
18.0370386616
 20
269.5041178217
 10
20.4605784193
 20
265.1213286868
 10
23.2105579153
 20
260.835993146
 10
26.2791912929
 20
256.6602109423
 10
29.6577688233
 20
252.6058434001
 10
33.3367314116
 20
248.684334611
 10
37.3056333438
 20
244.9068902483
 10
41.5532316939
 20
241.2841199389
 10
46.0674863235
 20
237.8263352862
 10
50.8355971352
 20
234.5433710566
 10
55.8440487758
 20
231.4445255747
 10
61.0786553398
 20
228.5385011187
 10
66.5245678202
 20
225.8336423388
 10
72.1663486139
 20
223.3375190249
 10
77.9880125002
 20
221.0572837344
 10
83.9730527178
 20
218.9993737689
 10
90.1045042948
 20
217.1696005812
 10
96.3649850265
 20
215.5731795779
 10
102.7367550806
 20
214.2146109095
 10
109.2017467991
 20
213.0977986804
 10
115.7416373418
 20
212.2258423319
 10
122.3378896639
 20
211.6012452593
 10
128.9718032741
 20
211.2257956019
 10
135.624575235
 20
211.1005066386
 10
142.277347196
 20
211.2257956019
 10
148.9112608061
 20
211.6012452593
 10
155.5075131283
 20
212.2258423319
 10
162.0474036709
 20
213.0977986804
 10
168.5123953895
 20
214.2146109095
 10
174.8841654436
 20
215.5731795779
 10
181.1446461753
 20
217.1696005812
 10
187.2760977522
 20
218.9993737689
 10
193.2611379699
 20
221.0572837344
 10
199.0828018562
 20
223.3375190249
 10
204.7245826498
 20
225.8336423388
 10
210.1704951302
 20
228.5385011187
 10
215.4051016942
 20
231.4445255747
 10
220.4135533348
 20
234.5433710566
 10
225.1816641466
 20
237.8263352862
 10
229.6959187762
 20
241.2841199389
 10
233.9435171262
 20
244.9068902483
 10
237.9124190585
 20
248.684334611
 10
241.5913816468
 20
252.6058434001
 10
244.9699591771
 20
256.6602109423
 10
248.0385925547
 20
260.835993146
 10
250.7885720507
 20
265.1213286868
 10
253.2121118084
 20
269.5041178217
 10
255.3023274914
 20
273.9718435755
 10
257.0533107892
 20
278.5119293681
 10
258.4600921646
 20
283.1115005961
 10
259.5186781064
 20
287.7574442378
 10
260.2260734812
 20
292.4367068759
 10
260.5802740828
 20
297.1359370699
 10
260.5802740828
 20
301.8417833796
 10
260.2260734812
 20
306.5410135737
 10
259.5186781064
 20
311.2202762118
 10
258.4600921646
 20
315.8662198535
 10
257.0533107892
 20
320.4657910815
 10
255.3023274914
 20
325.005876874
 10
253.2121118084
 20
329.4736026278
 10
250.7885720507
 20
333.8563917628
 10
248.0385925547
 20
338.1417273036
 10
244.9699591771
 20
342.3175095072
 10
241.5913816468
 20
346.3718770495
 10
237.9124190585
 20
350.2933858386
 10
233.9435171262
 20
354.0708302012
 10
229.6959187762
 20
357.6936005106
 10
225.1816641466
 20
361.1513851634
 10
220.4135533348
 20
364.4343493929
 10
215.4051016942
 20
367.5331948748
 10
210.1704951302
 20
370.4392193308
 10
204.7245826498
 20
373.1440781107
 10
199.0828018562
 20
375.6402014246
 10
193.2611379699
 20
377.9204367152
 10
187.2760977522
 20
379.9783466807
 10
181.1446461753
 20
381.8081496707
 10
174.8841654436
 20
383.4045408717
 10
168.5123953895
 20
384.76310954
 10
162.0474036709
 20
385.8799217692
 10
155.5075131283
 20
386.7518781176
 10
148.9112608061
 20
387.3764751902
 10
142.277347196
 20
387.7519248477
 10
135.624575235
 20
387.877213811
  0
ELLIPSE
  5
8B
330
1F
100
AcDbEntity
  8
0
  6
Continuous
 62
     7
370
    25
100
AcDbEllipse
 10
135.624575235
 20
-59.0142756948
 30
0.0
 11
125.0
 21
0.0
 31
0.0
210
0.0
220
0.0
230
1.0
 40
0.4142135624
 41
3.141592653589827
 42
6.283185307179586
  0
LINE
  5
8C
330
1F
100
AcDbEntity
  8
0
  6
Continuous
 62
     7
370
    25
100
AcDbLine
 10
10.624575235
 20
-281.0142756948
 30
0.0
 11
260.624575235
 21
-281.0142756948
 31
0.0
  0
LINE
  5
8D
330
1F
100
AcDbEntity
  8
0
  6
Continuous
 62
     7
370
    25
100
AcDbLine
 10
10.624575235
 20
447.9856966486
 30
0.0
 11
260.624575235
 21
447.9856966486
 31
0.0
  0
LINE
  5
8E
330
1F
100
AcDbEntity
  8
0
  6
Continuous
 62
     7
370
    25
100
AcDbLine
 10
10.624575235
 20
-696.9628756973
 30
0.0
 11
10.624575235
 21
-1055.4660087558
 31
0.0
  0
LINE
  5
8F
330
1F
100
AcDbEntity
  8
0
  6
Continuous
 62
     7
370
    25
100
AcDbLine
 10
260.624575235
 20
-1055.4660087558
 30
0.0
 11
260.624575235
 21
-696.9628756973
 31
0.0
  0
CIRCLE
  5
90
330
1F
100
AcDbEntity
  8
0
  6
Continuous
 62
     7
370
    25
100
AcDbCircle
 10
135.624575235
 20
-1055.4660087558
 30
0.0
 40
102.3
  0
CIRCLE
  5
91
330
1F
100
AcDbEntity
  8
0
  6
Continuous
 62
     7
370
    25
100
AcDbCircle
 10
135.624575235
 20
-1055.4660087558
 30
0.0
 40
125.0
  0
LWPOLYLINE
  5
92
330
1F
100
AcDbEntity
  8
0
  6
Continuous
 62
     7
370
    25
100
AcDbPolyline
 90
       61
 70
   128
 43
0.0
 10
10.624575235
 20
-696.9628756973
 10
10.6688763873
 20
-694.6099227401
 10
11.0230769888
 20
-689.9107223483
 10
11.7304723636
 20
-685.2314895126
 10
12.7890583054
 20
-680.5855160686
 10
14.1958396808
 20
-675.9859448406
 10
15.9468229786
 20
-671.445859048
 10
18.0370386616
 20
-666.9781034919
 10
20.4605784193
 20
-662.5953441593
 10
23.2105579153
 20
-658.3100086185
 10
26.2791912929
 20
-654.1342264148
 10
29.6577688233
 20
-650.0798290702
 10
33.3367314116
 20
-646.1583500835
 10
37.3056333438
 20
-642.3808759185
 10
41.5532316939
 20
-638.7581354114
 10
46.0674863235
 20
-635.300380561
 10
50.8355971352
 20
-632.0173865291
 10
55.8440487758
 20
-628.9185112449
 10
61.0786553398
 20
-626.0125165912
 10
66.5245678202
 20
-623.307628009
 10
72.1663486139
 20
-620.8115344974
 10
77.9880125002
 20
-618.5312992069
 10
83.9730527178
 20
-616.473359439
 10
90.1045042948
 20
-614.6436160537
 10
96.3649850265
 20
-613.0471950504
 10
102.7367550806
 20
-611.688626382
 10
109.2017467991
 20
-610.5718141529
 10
115.7416373418
 20
-609.6998578044
 10
122.3378896639
 20
-609.0752607318
 10
128.9718032741
 20
-608.6998110744
 10
135.624575235
 20
-608.5745221111
 10
142.277347196
 20
-608.6998110744
 10
148.9112608061
 20
-609.0752607318
 10
155.5075131283
 20
-609.6998578044
 10
162.0474036709
 20
-610.5718141529
 10
168.5123953895
 20
-611.688626382
 10
174.8841654436
 20
-613.0471950504
 10
181.1446461753
 20
-614.6436160537
 10
187.2760977522
 20
-616.473359439
 10
193.2611379699
 20
-618.5312992069
 10
199.0828018562
 20
-620.8115344974
 10
204.7245826498
 20
-623.307628009
 10
210.1704951302
 20
-626.0125165912
 10
215.4051016942
 20
-628.9185112449
 10
220.4135533348
 20
-632.0173865291
 10
225.1816641466
 20
-635.300380561
 10
229.6959187762
 20
-638.7581354114
 10
233.9435171262
 20
-642.3808759185
 10
237.9124190585
 20
-646.1583500835
 10
241.5913816468
 20
-650.0798290702
 10
244.9699591771
 20
-654.1342264148
 10
248.0385925547
 20
-658.3100086185
 10
250.7885720507
 20
-662.5953441593
 10
253.2121118084
 20
-666.9781034919
 10
255.3023274914
 20
-671.445859048
 10
257.0533107892
 20
-675.9859448406
 10
258.4600921646
 20
-680.5855160686
 10
259.5186781064
 20
-685.2314895126
 10
260.2260734812
 20
-689.9107223483
 10
260.5802740828
 20
-694.6099227401
 10
260.624575235
 20
-696.9628756973
  0
INSERT
  5
9E
330
1F
100
AcDbEntity
  8
FORMAT
100
AcDbBlockReference
  2
SW_CENTERMARKSYMBOL_0
 10
135.624575235
 20
-1055.4660087558
 30
0.0
  0
LINE
  5
9F
330
1F
100
AcDbEntity
  8
0
  6
Continuous
 62
     7
370
    25
100
AcDbLine
 10
260.624575235
 20
783.7408181808
 30
0.0
 11
260.624575235
 21
1142.2439512394
 31
0.0
  0
LINE
  5
A0
330
1F
100
AcDbEntity
  8
0
  6
Continuous
 62
     7
370
    25
100
AcDbLine
 10
10.624575235
 20
1142.2439512394
 30
0.0
 11
10.624575235
 21
783.7408181808
 31
0.0
  0
CIRCLE
  5
A1
330
1F
100
AcDbEntity
  8
0
  6
Continuous
 62
     7
370
    25
100
AcDbCircle
 10
135.624575235
 20
1142.2439512394
 30
0.0
 40
102.3
  0
CIRCLE
  5
A2
330
1F
100
AcDbEntity
  8
0
  6
Continuous
 62
     7
370
    25
100
AcDbCircle
 10
135.624575235
 20
1142.2439512394
 30
0.0
 40
125.0
  0
LWPOLYLINE
  5
A3
330
1F
100
AcDbEntity
  8
0
  6
Continuous
 62
     7
370
    25
100
AcDbPolyline
 90
      119
 70
   128
 43
0.0
 10
135.624575235
 20
872.129171767
 10
128.9718032741
 20
872.0038828037
 10
122.3378896639
 20
871.6284331463
 10
115.7416373418
 20
871.0038360737
 10
109.2017467991
 20
870.1318797252
 10
102.7367550806
 20
869.0150376938
 10
96.3649850265
 20
867.6564988277
 10
90.1045042948
 20
866.0600778244
 10
83.9730527178
 20
864.2303046367
 10
77.9880125002
 20
862.1723946712
 10
72.1663486139
 20
859.8921593807
 10
66.5245678202
 20
857.3960658691
 10
61.0786553398
 20
854.6911772869
 10
55.8440487758
 20
851.7851528309
 10
50.8355971352
 20
848.6862775467
 10
46.0674863235
 20
845.4033133171
 10
41.5532316939
 20
841.9455584667
 10
37.3056333438
 20
838.3227881573
 10
33.3367314116
 20
834.5453139923
 10
29.6577688233
 20
830.6238350056
 10
26.2791912929
 20
826.5694674633
 10
23.2105579153
 20
822.3936852596
 10
20.4605784193
 20
818.1083497188
 10
18.0370386616
 20
813.7255903862
 10
15.9468229786
 20
809.2578050278
 10
14.1958396808
 20
804.7177192352
 10
12.7890583054
 20
800.1181778095
 10
11.7304723636
 20
795.4722043655
 10
11.0230769888
 20
790.7929715298
 10
10.6688763873
 20
786.093771138
 10
10.6688763873
 20
781.3878652237
 10
11.0230769888
 20
776.6886648319
 10
11.7304723636
 20
772.0094319961
 10
12.7890583054
 20
767.3634585522
 10
14.1958396808
 20
762.7638873241
 10
15.9468229786
 20
758.2238015316
 10
18.0370386616
 20
753.7560459755
 10
20.4605784193
 20
749.3732866428
 10
23.2105579153
 20
745.087951102
 10
26.2791912929
 20
740.9121688984
 10
29.6577688233
 20
736.8577715538
 10
33.3367314116
 20
732.936292567
 10
37.3056333438
 20
729.1588184021
 10
41.5532316939
 20
725.536077895
 10
46.0674863235
 20
722.0783230446
 10
50.8355971352
 20
718.7953290127
 10
55.8440487758
 20
715.6964537285
 10
61.0786553398
 20
712.7904590748
 10
66.5245678202
 20
710.0855704925
 10
72.1663486139
 20
707.589476981
 10
77.9880125002
 20
705.3092416904
 10
83.9730527178
 20
703.2513019226
 10
90.1045042948
 20
701.4215585373
 10
96.3649850265
 20
699.8251375339
 10
102.7367550806
 20
698.4665688656
 10
109.2017467991
 20
697.3497566364
 10
115.7416373418
 20
696.477800288
 10
122.3378896639
 20
695.8532032154
 10
128.9718032741
 20
695.477753558
 10
135.624575235
 20
695.3524645946
 10
142.277347196
 20
695.477753558
 10
148.9112608061
 20
695.8532032154
 10
155.5075131283
 20
696.477800288
 10
162.0474036709
 20
697.3497566364
 10
168.5123953895
 20
698.4665688656
 10
174.8841654436
 20
699.8251375339
 10
181.1446461753
 20
701.4215585373
 10
187.2760977522
 20
703.2513019226
 10
193.2611379699
 20
705.3092416904
 10
199.0828018562
 20
707.589476981
 10
204.7245826498
 20
710.0855704925
 10
210.1704951302
 20
712.7904590748
 10
215.4051016942
 20
715.6964537285
 10
220.4135533348
 20
718.7953290127
 10
225.1816641466
 20
722.0783230446
 10
229.6959187762
 20
725.536077895
 10
233.9435171262
 20
729.1588184021
 10
237.9124190585
 20
732.936292567
 10
241.5913816468
 20
736.8577715538
 10
244.9699591771
 20
740.9121688984
 10
248.0385925547
 20
745.087951102
 10
250.7885720507
 20
749.3732866428
 10
253.2121118084
 20
753.7560459755
 10
255.3023274914
 20
758.2238015316
 10
257.0533107892
 20
762.7638873241
 10
258.4600921646
 20
767.3634585522
 10
259.5186781064
 20
772.0094319961
 10
260.2260734812
 20
776.6886648319
 10
260.5802740828
 20
781.3878652237
 10
260.5802740828
 20
786.093771138
 10
260.2260734812
 20
790.7929715298
 10
259.5186781064
 20
795.4722043655
 10
258.4600921646
 20
800.1181778095
 10
257.0533107892
 20
804.7177192352
 10
255.3023274914
 20
809.2578050278
 10
253.2121118084
 20
813.7255903862
 10
250.7885720507
 20
818.1083497188
 10
248.0385925547
 20
822.3936852596
 10
244.9699591771
 20
826.5694674633
 10
241.5913816468
 20
830.6238350056
 10
237.9124190585
 20
834.5453139923
 10
233.9435171262
 20
838.3227881573
 10
229.6959187762
 20
841.9455584667
 10
225.1816641466
 20
845.4033133171
 10
220.4135533348
 20
848.6862775467
 10
215.4051016942
 20
851.7851528309
 10
210.1704951302
 20
854.6911772869
 10
204.7245826498
 20
857.3960658691
 10
199.0828018562
 20
859.8921593807
 10
193.2611379699
 20
862.1723946712
 10
187.2760977522
 20
864.2303046367
 10
181.1446461753
 20
866.0600778244
 10
174.8841654436
 20
867.6564988277
 10
168.5123953895
 20
869.0150376938
 10
162.0474036709
 20
870.1318797252
 10
155.5075131283
 20
871.0038360737
 10
148.9112608061
 20
871.6284331463
 10
142.277347196
 20
872.0038828037
 10
135.624575235
 20
872.129171767
  0
LWPOLYLINE
  5
A4
330
1F
100
AcDbEntity
  8
0
  6
Continuous
 62
     7
370
    25
100
AcDbPolyline
 90
      108
 70
   128
 43
0.0
 10
135.624575235
 20
856.0778495453
 10
129.6208321974
 20
855.9531566284
 10
123.6377850101
 20
855.5795547149
 10
117.6960587428
 20
854.9582955025
 10
111.8161369041
 20
854.0915247581
 10
106.0182850734
 20
852.9822525165
 10
100.322495021
 20
851.6342934749
 10
94.7483990268
 20
850.0522967956
 10
89.3152084128
 20
848.2417163036
 10
84.041657664
 20
846.2087806843
 10
78.9459224717
 20
843.9604934833
 10
74.0455713049
 20
841.504633107
 10
69.35749463
 20
838.8496336124
 10
64.8978602067
 20
836.004674115
 10
60.6820311324
 20
832.9795297764
 10
56.7245434896
 20
829.7846910141
 10
53.0390392915
 20
826.4310952804
 10
49.6382292286
 20
822.9303356788
 10
46.5338256136
 20
819.2944821499
 10
43.7365423814
 20
815.5360814712
 10
41.2560131327
 20
811.6680678509
 10
39.100791134
 20
807.7037927292
 10
37.2783120648
 20
803.6569055698
 10
35.7948493139
 20
799.541383662
 10
34.6555139796
 20
795.3713533066
 10
33.864247419
 20
791.1612686298
 10
33.4237690941
 20
786.9255837581
 10
33.3355989233
 20
782.6789316318
 10
33.6000349299
 20
778.4359153889
 10
34.2161755935
 20
774.2111977718
 10
35.1818900482
 20
770.0193521164
 10
36.4938553349
 20
765.8747729442
 10
38.1475415007
 20
761.7917951725
 10
40.1372488514
 20
757.7844854973
 10
42.4561228529
 20
753.8666721962
 10
45.0961690322
 20
750.0518259189
 10
48.0482827798
 20
746.3530894897
 10
51.3022940532
 20
742.7832481048
 10
54.8469748274
 20
739.3546101234
 10
58.6701210514
 20
736.0789772651
 10
62.758537747
 20
732.9676446102
 10
67.0981433169
 20
730.0313111923
 10
71.6739695445
 20
727.2801694057
 10
76.4702547268
 20
724.7236367843
 10
81.4704511241
 20
722.3705348156
 10
86.6573292688
 20
720.2289995334
 10
92.0130077676
 20
718.3064219139
 10
97.5190240816
 20
716.6093882702
 10
103.1563978568
 20
715.1437696598
 10
108.9056961165
 20
713.9146324776
 10
114.7471003161
 20
712.9261788509
 10
120.6604724676
 20
712.1818658493
 10
126.6254296453
 20
711.6842266701
 10
132.6214094107
 20
711.4349600456
 10
138.6277410594
 20
711.4349600456
 10
144.6237208248
 20
711.6842266701
 10
150.5886780024
 20
712.1818658493
 10
156.502050154
 20
712.9261788509
 10
162.3434543536
 20
713.9146324776
 10
168.0927526132
 20
715.1437696598
 10
173.7301263884
 20
716.6093882702
 10
179.2361427025
 20
718.3064219139
 10
184.5918212012
 20
720.2289995334
 10
189.778699346
 20
722.3705348156
 10
194.7788957433
 20
724.7236367843
 10
199.5751809255
 20
727.2801694057
 10
204.1510071532
 20
730.0313111923
 10
208.490612723
 20
732.9676446102
 10
212.5790294186
 20
736.0789772651
 10
216.4021756426
 20
739.3546101234
 10
219.9468564168
 20
742.7832481048
 10
223.2008676902
 20
746.3530894897
 10
226.1529814378
 20
750.0518259189
 10
228.7930276171
 20
753.8666721962
 10
231.1119016186
 20
757.7844854973
 10
233.1016089693
 20
761.7917951725
 10
234.7552951352
 20
765.8747729442
 10
236.0672604219
 20
770.0193521164
 10
237.0329748765
 20
774.2111977718
 10
237.6491155402
 20
778.4359153889
 10
237.9135515467
 20
782.6789316318
 10
237.8253813759
 20
786.9255837581
 10
237.384903051
 20
791.1612686298
 10
236.5936364905
 20
795.3713533066
 10
235.4543011562
 20
799.541383662
 10
233.9708384053
 20
803.6569055698
 10
232.148359336
 20
807.7037927292
 10
229.9931373373
 20
811.6680678509
 10
227.5126080886
 20
815.5360814712
 10
224.7153248564
 20
819.2944821499
 10
221.6109212414
 20
822.9303356788
 10
218.2101111785
 20
826.4310952804
 10
214.5246069805
 20
829.7846910141
 10
210.5671193377
 20
832.9795297764
 10
206.3512902633
 20
836.004674115
 10
201.8916558401
 20
838.8496336124
 10
197.2035791651
 20
841.504633107
 10
192.3032279984
 20
843.9604934833
 10
187.2074928061
 20
846.2087806843
 10
181.9339420573
 20
848.2417163036
 10
176.5007514433
 20
850.0522967956
 10
170.926655449
 20
851.6342934749
 10
165.2308653966
 20
852.9822525165
 10
159.4330135659
 20
854.0915247581
 10
153.5530917273
 20
854.9582955025
 10
147.6113654599
 20
855.5795547149
 10
141.6283182726
 20
855.9531566284
 10
135.624575235
 20
856.0778495453
  0
INSERT
  5
B0
330
1F
100
AcDbEntity
  8
FORMAT
100
AcDbBlockReference
  2
SW_CENTERMARKSYMBOL_1
 10
135.624575235
 20
1142.2439512394
 30
0.0
  0
LINE
  5
B1
330
1F
100
AcDbEntity
  8
0
  6
Continuous
 62
     7
370
    25
100
AcDbLine
 10
921.8025242055
 20
242.7624343386
 30
0.0
 11
921.8025242055
 21
447.9856966486
 31
0.0
  0
LINE
  5
B2
330
1F
100
AcDbEntity
  8
0
  6
Continuous
 62
     7
370
    25
100
AcDbLine
 10
921.8025242055
 20
-281.0142756948
 30
0.0
 11
921.8025242055
 21
-110.790965105
 31
0.0
  0
LINE
  5
B3
330
1F
100
AcDbEntity
  8
0
  6
Continuous
 62
     7
370
    25
100
AcDbLine
 10
671.8025242055
 20
447.9856966486
 30
0.0
 11
671.8025242055
 21
-281.0142756948
 31
0.0
  0
LINE
  5
B4
330
1F
100
AcDbEntity
  8
0
  6
Continuous
 62
     7
370
    25
100
AcDbLine
 10
1066.9173036779
 20
387.877213811
 30
0.0
 11
921.8025242055
 21
242.7624343386
 31
0.0
  0
LINE
  5
B5
330
1F
100
AcDbEntity
  8
0
  6
Continuous
 62
     7
370
    25
100
AcDbLine
 10
921.8025242055
 20
-110.790965105
 30
0.0
 11
1243.6940108503
 21
211.1005066386
 31
0.0
  0
LINE
  5
B6
330
1F
100
AcDbEntity
  8
0
  6
Continuous
 62
     7
370
    25
100
AcDbLine
 10
796.8025242055
 20
-281.0142756948
 30
0.0
 11
921.8025242055
 21
-281.0142756948
 31
0.0
  0
LINE
  5
B7
330
1F
100
AcDbEntity
  8
0
  6
Continuous
 62
     7
370
    25
100
AcDbLine
 10
671.8025242055
 20
-281.0142756948
 30
0.0
 11
796.8025242055
 21
-281.0142756948
 31
0.0
  0
LINE
  5
B8
330
1F
100
AcDbEntity
  8
0
  6
Continuous
 62
     7
370
    25
100
AcDbLine
 10
796.8025242055
 20
447.9856966486
 30
0.0
 11
921.8025242055
 21
447.9856966486
 31
0.0
  0
LINE
  5
B9
330
1F
100
AcDbEntity
  8
0
  6
Continuous
 62
     7
370
    25
100
AcDbLine
 10
671.8025242055
 20
447.9856966486
 30
0.0
 11
796.8025242055
 21
447.9856966486
 31
0.0
  0
LWPOLYLINE
  5
BA
330
1F
100
AcDbEntity
  8
0
  6
Continuous
 62
     7
370
    25
100
AcDbPolyline
 90
       49
 70
   128
 43
0.0
 10
796.8025242055
 20
-59.0142728338
 10
800.9354455473
 20
-49.036514903
 10
805.0638471807
 20
-39.0696795234
 10
809.1832154507
 20
-29.1246296415
 10
813.2890460158
 20
-19.2122878084
 10
817.3768480385
 20
-9.3434573659
 10
821.4421530331
 20
0.4710434428
 10
825.4805148656
 20
10.220515584
 10
829.4875172044
 20
19.8942898264
 10
833.4587772454
 20
29.4817565432
 10
837.3899568881
 20
38.9724551192
 10
841.2767534221
 20
48.3560143462
 10
845.1149200166
 20
57.622152423
 10
848.9002582694
 20
66.7607663622
 10
852.6286256577
 20
75.7618425837
 10
856.2959467138
 20
84.615546321
 10
859.8982130254
 20
93.3121918192
 10
863.4314869607
 20
101.8422721377
 10
866.891909119
 20
110.1964591494
 10
870.275679704
 20
118.3656035414
 10
873.5791106785
 20
126.3407944193
 10
876.7985885108
 20
134.113329505
 10
879.930596527
 20
141.6746555319
 10
882.9717000092
 20
149.0165172568
 10
885.9185834492
 20
156.1309276572
 10
888.768013295
 20
163.0100487223
 10
891.5168826545
 20
169.6464000693
 10
894.1621814931
 20
176.0327397337
 10
896.7010264362
 20
182.1620343676
 10
899.1306235159
 20
188.0276082507
 10
901.4483352269
 20
193.6230538836
 10
903.6516134704
 20
198.942231988
 10
905.738051709
 20
203.9793609133
 10
907.7053775156
 20
208.7288974276
 10
909.5514302219
 20
213.1856559268
 10
911.2741907204
 20
217.3447786322
 10
912.8717814649
 20
221.2017057887
 10
914.3424515689
 20
224.752175664
 10
915.6845917071
 20
227.9924033633
 10
916.896734115
 20
230.9188126078
 10
917.9775600399
 20
233.5281251421
 10
918.9258773888
 20
235.8175991526
 10
919.7406579817
 20
237.7846120348
 10
920.4210077489
 20
239.4271372309
 10
920.9661816324
 20
240.7433269969
 10
921.3755835856
 20
241.7316912165
 10
921.6487740243
 20
242.391216611
 10
921.7854400242
 20
242.7211879244
 10
921.8025242055
 20
242.7624343386
  0
LWPOLYLINE
  5
BB
330
1F
100
AcDbEntity
  8
0
  6
Continuous
 62
     7
370
    25
100
AcDbPolyline
 90
       32
 70
   128
 43
0.0
 10
921.8025242055
 20
-110.790965105
 10
921.7610840763
 20
-110.7737989673
 10
921.4297120536
 20
-110.6365443716
 10
920.767862078
 20
-110.3623928079
 10
919.7772701348
 20
-109.9520893344
 10
918.4605737294
 20
-109.4066919336
 10
916.8212597335
 20
-108.7276609191
 10
914.8636792863
 20
-107.9167993316
 10
912.5930179919
 20
-106.9762678394
 10
910.0153033699
 20
-105.9085400352
 10
907.1373750533
 20
-104.7164620409
 10
903.966854986
 20
-103.4031929025
 10
900.5121474231
 20
-101.9722045907
 10
896.7824314798
 20
-100.4273118028
 10
892.7875791753
 20
-98.7725825557
 10
888.5381926859
 20
-97.0124275932
 10
884.0455447401
 20
-95.1515109786
 10
879.3215413655
 20
-93.1947649965
 10
874.3787069882
 20
-91.1473901519
 10
869.2301620806
 20
-89.0147806653
 10
863.8895486558
 20
-86.8026287803
 10
858.3710339929
 20
-84.5167906532
 10
852.6892473067
 20
-82.1633161554
 10
846.8592611218
 20
-79.7484488735
 10
840.8965353931
 20
-77.2786112079
 10
834.8168765272
 20
-74.7603298673
 10
828.636415031
 20
-72.2003103742
 10
822.3715328688
 20
-69.6053029546
 10
816.0388466979
 20
-66.9822217473
 10
809.6551491956
 20
-64.3380106935
 10
803.2373685467
 20
-61.6796733388
 10
796.8025242055
 20
-59.0142728338
  0
LWPOLYLINE
  5
BC
330
1F
100
AcDbEntity
  8
0
  6
Continuous
 62
     7
370
    25
100
AcDbPolyline
 90
       60
 70
   128
 43
0.0
 10
1066.9173036779
 20
387.877213811
 10
1067.0425926412
 20
387.7519248477
 10
1067.4180422986
 20
387.3764751902
 10
1068.0426393712
 20
386.7518781176
 10
1068.9145957197
 20
385.8799217692
 10
1070.0314377511
 20
384.76310954
 10
1071.3899766172
 20
383.4045408717
 10
1072.9863976205
 20
381.8081496707
 10
1074.8161708082
 20
379.9783466807
 10
1076.8740807737
 20
377.9204367152
 10
1079.1543160642
 20
375.6402014246
 10
1081.6504095758
 20
373.1440781107
 10
1084.355298158
 20
370.4392193308
 10
1087.261322614
 20
367.5331948748
 10
1090.3601978982
 20
364.4343493929
 10
1093.6431621278
 20
361.1513851634
 10
1097.1009169782
 20
357.6936005106
 10
1100.7236872877
 20
354.0708302012
 10
1104.5011614526
 20
350.2933858386
 10
1108.4226404394
 20
346.3718770495
 10
1112.4770079816
 20
342.3175095072
 10
1116.6527901853
 20
338.1417273036
 10
1120.9381257261
 20
333.8563917628
 10
1125.3208850587
 20
329.4736026278
 10
1129.7886704172
 20
325.005876874
 10
1134.3287562097
 20
320.4657910815
 10
1138.9282976354
 20
315.8662198535
 10
1143.5742710794
 20
311.2202762118
 10
1148.2535039152
 20
306.5410135737
 10
1152.9527043069
 20
301.8417833796
 10
1157.6586102212
 20
297.1359370699
 10
1162.357810613
 20
292.4367068759
 10
1167.0370434488
 20
287.7574442378
 10
1171.6830168928
 20
283.1115005961
 10
1176.2825881208
 20
278.5119293681
 10
1180.8226739133
 20
273.9718435755
 10
1185.2904294694
 20
269.5041178217
 10
1189.6731888021
 20
265.1213286868
 10
1193.9585243429
 20
260.835993146
 10
1198.1343065465
 20
256.6602109423
 10
1202.1887038911
 20
252.6058434001
 10
1206.1101828779
 20
248.684334611
 10
1209.8876570428
 20
244.9068902483
 10
1213.51039755
 20
241.2841199389
 10
1216.9681524003
 20
237.8263352862
 10
1220.2511464323
 20
234.5433710566
 10
1223.3500217164
 20
231.4445255747
 10
1226.2560163702
 20
228.5385011187
 10
1228.9609049524
 20
225.8336423388
 10
1231.456998464
 20
223.3375190249
 10
1233.7372337545
 20
221.0572837344
 10
1235.7951735223
 20
218.9993737689
 10
1237.6249169076
 20
217.1696005812
 10
1239.221337911
 20
215.5731795779
 10
1240.5799065793
 20
214.2146109095
 10
1241.6967188085
 20
213.0977986804
 10
1242.5686751569
 20
212.2258423319
 10
1243.1932722295
 20
211.6012452593
 10
1243.568721887
 20
211.2257956019
 10
1243.6940108503
 20
211.1005066386
  0
LINE
  5
BD
330
1F
100
AcDbEntity
  8
0
  6
Continuous
 62
     7
370
    25
100
AcDbLine
 10
-409.8604863744
 20
-281.0142756948
 30
0.0
 11
-409.8604863744
 21
447.9856966486
 31
0.0
  0
LINE
  5
BE
330
1F
100
AcDbEntity
  8
0
  6
Continuous
 62
     7
370
    25
100
AcDbLine
 10
-659.8604863744
 20
-110.790965105
 30
0.0
 11
-659.8604863744
 21
-281.0142756948
 31
0.0
  0
LINE
  5
BF
330
1F
100
AcDbEntity
  8
0
  6
Continuous
 62
     7
370
    25
100
AcDbLine
 10
-659.8604863744
 20
447.9856966486
 30
0.0
 11
-659.8604863744
 21
242.7624343386
 31
0.0
  0
LINE
  5
C0
330
1F
100
AcDbEntity
  8
0
  6
Continuous
 62
     7
370
    25
100
AcDbLine
 10
-981.7519730192
 20
211.1005066386
 30
0.0
 11
-659.8604863744
 21
-110.790965105
 31
0.0
  0
LINE
  5
C1
330
1F
100
AcDbEntity
  8
0
  6
Continuous
 62
     7
370
    25
100
AcDbLine
 10
-659.8604863744
 20
242.7624343386
 30
0.0
 11
-804.9752658468
 21
387.877213811
 31
0.0
  0
LINE
  5
C2
330
1F
100
AcDbEntity
  8
0
  6
Continuous
 62
     7
370
    25
100
AcDbLine
 10
-659.8604863744
 20
-281.0142756948
 30
0.0
 11
-409.8604863744
 21
-281.0142756948
 31
0.0
  0
LINE
  5
C3
330
1F
100
AcDbEntity
  8
0
  6
Continuous
 62
     7
370
    25
100
AcDbLine
 10
-659.8604863744
 20
447.9856966486
 30
0.0
 11
-409.8604863744
 21
447.9856966486
 31
0.0
  0
LWPOLYLINE
  5
C4
330
1F
100
AcDbEntity
  8
0
  6
Continuous
 62
     7
370
    25
100
AcDbPolyline
 90
       49
 70
   128
 43
0.0
 10
-659.8604863744
 20
242.7624343386
 10
-659.8434021931
 20
242.7211879244
 10
-659.7067361932
 20
242.391216611
 10
-659.4335457545
 20
241.7316912165
 10
-659.0241438013
 20
240.7433269969
 10
-658.4789699178
 20
239.4271372309
 10
-657.7986201506
 20
237.7846120348
 10
-656.9838395577
 20
235.8175991526
 10
-656.0355222087
 20
233.5281251421
 10
-654.9546962839
 20
230.9188126078
 10
-653.742553876
 20
227.9924033633
 10
-652.4004137378
 20
224.752175664
 10
-650.9297436338
 20
221.2017057887
 10
-649.3321528893
 20
217.3447786322
 10
-647.6093923908
 20
213.1856559268
 10
-645.7633396845
 20
208.7288974276
 10
-643.7960138779
 20
203.9793609133
 10
-641.7095756393
 20
198.942231988
 10
-639.5062973958
 20
193.6230538836
 10
-637.1885856848
 20
188.0276082507
 10
-634.7589886051
 20
182.1620343676
 10
-632.220143662
 20
176.0327397337
 10
-629.5748448234
 20
169.6464000693
 10
-626.8259754639
 20
163.0100487223
 10
-623.9765456181
 20
156.1309276572
 10
-621.0296621781
 20
149.0165172568
 10
-617.9885586958
 20
141.6746555319
 10
-614.8565506797
 20
134.113329505
 10
-611.6370728474
 20
126.3407944193
 10
-608.3336418729
 20
118.3656035414
 10
-604.9498712879
 20
110.1964591494
 10
-601.4894491296
 20
101.8422721377
 10
-597.9561751943
 20
93.3121918192
 10
-594.3539088827
 20
84.615546321
 10
-590.6865878265
 20
75.7618425837
 10
-586.9582204383
 20
66.7607663622
 10
-583.1728821855
 20
57.622152423
 10
-579.334715591
 20
48.3560143462
 10
-575.4479190569
 20
38.9724551192
 10
-571.5167394143
 20
29.4817565432
 10
-567.5454793733
 20
19.8942898264
 10
-563.5384770345
 20
10.220515584
 10
-559.500115202
 20
0.4710434428
 10
-555.4348102074
 20
-9.3434573659
 10
-551.3470081847
 20
-19.2122878084
 10
-547.2411776196
 20
-29.1246296415
 10
-543.1218093496
 20
-39.0696795234
 10
-538.9934077162
 20
-49.036514903
 10
-534.8604863744
 20
-59.0142728338
  0
LWPOLYLINE
  5
C5
330
1F
100
AcDbEntity
  8
0
  6
Continuous
 62
     7
370
    25
100
AcDbPolyline
 90
       32
 70
   128
 43
0.0
 10
-534.8604863744
 20
-59.0142728338
 10
-541.2953307156
 20
-61.6796733388
 10
-547.7131113645
 20
-64.3380106935
 10
-554.0968088668
 20
-66.9822217473
 10
-560.4294950377
 20
-69.6053029546
 10
-566.6943771999
 20
-72.2003103742
 10
-572.8748386961
 20
-74.7603298673
 10
-578.954497562
 20
-77.2786112079
 10
-584.9172232907
 20
-79.7484488735
 10
-590.7472094756
 20
-82.1633161554
 10
-596.4289961617
 20
-84.5167906532
 10
-601.9475108247
 20
-86.8026287803
 10
-607.2881242495
 20
-89.0147806653
 10
-612.4366691571
 20
-91.1473901519
 10
-617.3795035344
 20
-93.1947649965
 10
-622.1035069089
 20
-95.1515109786
 10
-626.5961548548
 20
-97.0124275932
 10
-630.8455413442
 20
-98.7725825557
 10
-634.8403936487
 20
-100.4273118028
 10
-638.570109592
 20
-101.9722045907
 10
-642.0248171549
 20
-103.4031929025
 10
-645.1953372221
 20
-104.7164620409
 10
-648.0732655387
 20
-105.9085400352
 10
-650.6509801608
 20
-106.9762678394
 10
-652.9216414552
 20
-107.9167993316
 10
-654.8792219024
 20
-108.7276609191
 10
-656.5185358983
 20
-109.4066919336
 10
-657.8352323037
 20
-109.9520893344
 10
-658.8258242469
 20
-110.3623928079
 10
-659.4876742225
 20
-110.6365443716
 10
-659.8190462451
 20
-110.7737989673
 10
-659.8604863744
 20
-110.790965105
  0
LWPOLYLINE
  5
C6
330
1F
100
AcDbEntity
  8
0
  6
Continuous
 62
     7
370
    25
100
AcDbPolyline
 90
       60
 70
   128
 43
0.0
 10
-981.7519730192
 20
211.1005066386
 10
-981.6266840559
 20
211.2257956019
 10
-981.2512343984
 20
211.6012452593
 10
-980.6266373258
 20
212.2258423319
 10
-979.7546809774
 20
213.0977986804
 10
-978.6378687482
 20
214.2146109095
 10
-977.2793000799
 20
215.5731795779
 10
-975.6828790765
 20
217.1696005812
 10
-973.8531356912
 20
218.9993737689
 10
-971.7951959234
 20
221.0572837344
 10
-969.5149606329
 20
223.3375190249
 10
-967.0188671213
 20
225.8336423388
 10
-964.313978539
 20
228.5385011187
 10
-961.4079838853
 20
231.4445255747
 10
-958.3091086011
 20
234.5433710566
 10
-955.0261145692
 20
237.8263352862
 10
-951.5683597189
 20
241.2841199389
 10
-947.9456192117
 20
244.9068902483
 10
-944.1681450468
 20
248.684334611
 10
-940.24666606
 20
252.6058434001
 10
-936.1922687154
 20
256.6602109423
 10
-932.0164865118
 20
260.835993146
 10
-927.731150971
 20
265.1213286868
 10
-923.3483916383
 20
269.5041178217
 10
-918.8806360822
 20
273.9718435755
 10
-914.3405502897
 20
278.5119293681
 10
-909.7409790617
 20
283.1115005961
 10
-905.0950056177
 20
287.7574442378
 10
-900.4157727819
 20
292.4367068759
 10
-895.7165723901
 20
297.1359370699
 10
-891.0106664758
 20
301.8417833796
 10
-886.3114660841
 20
306.5410135737
 10
-881.6322332483
 20
311.2202762118
 10
-876.9862598043
 20
315.8662198535
 10
-872.3867183786
 20
320.4657910815
 10
-867.8466325861
 20
325.005876874
 10
-863.3788472276
 20
329.4736026278
 10
-858.996087895
 20
333.8563917628
 10
-854.7107523542
 20
338.1417273036
 10
-850.5349701505
 20
342.3175095072
 10
-846.4806026083
 20
346.3718770495
 10
-842.5591236215
 20
350.2933858386
 10
-838.7816494566
 20
354.0708302012
 10
-835.1588791471
 20
357.6936005106
 10
-831.7011242967
 20
361.1513851634
 10
-828.4181600671
 20
364.4343493929
 10
-825.3192847829
 20
367.5331948748
 10
-822.4132603269
 20
370.4392193308
 10
-819.7083717447
 20
373.1440781107
 10
-817.2122782331
 20
375.6402014246
 10
-814.9320429426
 20
377.9204367152
 10
-812.8741329771
 20
379.9783466807
 10
-811.0443597894
 20
381.8081496707
 10
-809.4479387861
 20
383.4045408717
 10
-808.08939992
 20
384.76310954
 10
-806.9725578886
 20
385.8799217692
 10
-806.1006015401
 20
386.7518781176
 10
-805.4760044675
 20
387.3764751902
 10
-805.1005548101
 20
387.7519248477
 10
-804.9752658468
 20
387.877213811
  0
LINE
  5
C7
330
1F
100
AcDbEntity
  8
0
  6
Continuous
 62
     7
370
    25
100
AcDbLine
 10
615.9703508188
 20
-662.5584626913
 30
0.0
 11
852.7235182962
 21
-1072.6269642443
 31
0.0
  0
LINE
  5
C8
330
1F
100
AcDbEntity
  8
0
  6
Continuous
 62
     7
370
    25
100
AcDbLine
 10
998.8565413245
 20
-825.7367970046
 30
0.0
 11
832.4766885705
 21
-537.5584212734
 31
0.0
  0
LINE
  5
C9
330
1F
100
AcDbEntity
  8
0
  6
Continuous
 62
     7
370
    25
100
AcDbLine
 10
1102.7235140177
 20
-1220.4053768598
 30
0.0
 11
1102.7235140177
 21
-625.1471475778
 31
0.0
  0
LINE
  5
CA
330
1F
100
AcDbEntity
  8
0
  6
Continuous
 62
     7
370
    25
100
AcDbLine
 10
852.7235182962
 20
-1069.0282299396
 30
0.0
 11
852.7235182962
 21
-1220.4053768598
 31
0.0
  0
ELLIPSE
  5
CB
330
1F
100
AcDbEntity
  8
0
  6
Continuous
 62
     7
370
    25
100
AcDbEllipse
 10
977.7235161569
 20
-1039.1333166211
 30
0.0
 11
124.5493450390218
 21
33.37289650585468
 31
0.0
210
0.0
220
0.0
230
1.0
 40
0.3177652438
 41
0.7004580896382454
 42
3.056652579830586
  0
ELLIPSE
  5
CC
330
1F
100
AcDbEntity
  8
0
  6
Continuous
 62
     7
370
    25
100
AcDbEllipse
 10
977.7235161569
 20
-1039.1333166211
 30
0.0
 11
-80.57099823912961
 21
300.6950582807011
 31
0.0
210
0.0
220
0.0
230
1.0
 40
0.3178248929
 41
4.797329054143891
 42
5.412847070022956
  0
LWPOLYLINE
  5
CD
330
1F
100
AcDbEntity
  8
0
  6
Continuous
 62
     7
370
    25
100
AcDbPolyline
 90
      119
 70
   128
 43
0.0
 10
786.7235238933
 20
-563.966228413
 10
781.9307110505
 20
-566.7330769994
 10
776.9743427522
 20
-569.5943773368
 10
771.8684311792
 20
-572.5420402309
 10
766.6274639814
 20
-575.5677019023
 10
761.266297923
 20
-578.6627610605
 10
755.8001440649
 20
-581.8185091282
 10
750.2444755689
 20
-585.0259157937
 10
744.6150395513
 20
-588.2759871784
 10
738.927814936
 20
-591.5594251495
 10
733.1989070876
 20
-594.8669558414
 10
727.4445609819
 20
-598.1892247059
 10
721.6810742785
 20
-601.5167493626
 10
715.924778881
 20
-604.8401735923
 10
710.1920330352
 20
-608.1500042118
 10
704.4990632777
 20
-611.4369213476
 10
698.8620013147
 20
-614.6916111302
 10
693.2968102651
 20
-617.9048082804
 10
687.8192951972
 20
-621.0673873581
 10
682.4449714194
 20
-624.1704631511
 10
677.1890855544
 20
-627.205159492
 10
672.0665101712
 20
-630.1629134415
 10
667.0917912009
 20
-633.0353262384
 10
662.2790109593
 20
-635.8142910601
 10
657.6418039519
 20
-638.4918378896
 10
653.1933463372
 20
-641.060480278
 10
648.9462347545
 20
-643.5129203008
 10
644.9125021291
 20
-645.8421367654
 10
641.1035807937
 20
-648.0416255179
 10
637.5302866833
 20
-650.1050922186
 10
634.2027086996
 20
-652.0266379039
 10
631.1303298837
 20
-653.8009323602
 10
628.3218166813
 20
-655.4228977905
 10
625.7851506518
 20
-656.8878761052
 10
623.5275072961
 20
-658.1917962361
 10
621.5553140086
 20
-659.3309216565
 10
619.8741394418
 20
-660.3020116124
 10
618.4887619945
 20
-661.1023789166
 10
617.4031013237
 20
-661.7296861456
 10
616.620228881
 20
-662.1821829135
 10
616.1423521075
 20
-662.4585689867
 10
615.9708671176
 20
-662.5581098795
 10
616.10622699
 20
-662.4804452247
 10
616.548068208
 20
-662.2258807915
 10
617.2951263662
 20
-661.7950964757
 10
618.3452625121
 20
-661.1892771014
 10
619.6955369029
 20
-660.4101671738
 10
621.3421141754
 20
-659.4600283078
 10
623.2803107612
 20
-658.3414658393
 10
625.5046475698
 20
-657.0577390987
 10
628.008815745
 20
-655.6124161696
 10
630.7856951035
 20
-654.0096065919
 10
633.8274621365
 20
-652.2538990026
 10
637.1254503983
 20
-650.3502227496
 10
640.6703190936
 20
-648.303993893
 10
644.4520530775
 20
-646.1209935348
 10
648.4598877815
 20
-643.8074355167
 10
652.6824857034
 20
-641.3698645074
 10
657.1078880042
 20
-638.8151839603
 10
661.7235154959
 20
-636.1506555517
 10
666.5163283387
 20
-633.3838069653
 10
671.472696637
 20
-630.5225066279
 10
676.57860821
 20
-627.5748437338
 10
681.8195754078
 20
-624.5491820624
 10
687.1807203928
 20
-621.4541107388
 10
692.6468953244
 20
-618.2983748366
 10
698.2025638204
 20
-615.0909438362
 10
703.8319787645
 20
-611.8408846209
 10
709.5192244532
 20
-608.5574588153
 10
715.2481323016
 20
-605.2499281233
 10
721.0024784073
 20
-601.9276592588
 10
726.7659651108
 20
-598.6001346021
 10
732.5222394348
 20
-595.276698207
 10
738.2549852806
 20
-591.9668675875
 10
743.9479761116
 20
-588.6799626171
 10
749.5850380746
 20
-585.4252728345
 10
755.1502080507
 20
-582.2120635189
 10
760.6277231186
 20
-579.0494844412
 10
766.0020468964
 20
-575.9464086482
 10
771.2579538349
 20
-572.9117244728
 10
776.3805292181
 20
-569.9539705232
 10
781.3552481884
 20
-567.0815577263
 10
786.16802843
 20
-564.3025929046
 10
790.8052143639
 20
-561.6250339096
 10
795.2536719787
 20
-559.0563915213
 10
799.5008046347
 20
-556.6039636639
 10
803.5345372601
 20
-554.2747471993
 10
807.3434585955
 20
-552.0752584468
 10
810.916752706
 20
-550.0117917461
 10
814.2443306896
 20
-548.0902460608
 10
817.3167095055
 20
-546.3159516045
 10
820.1252227079
 20
-544.6939861742
 10
822.6618887375
 20
-543.2290078595
 10
824.9195110197
 20
-541.9250755632
 10
826.8917043072
 20
-540.7859501428
 10
828.5728999474
 20
-539.8148723523
 10
829.9582773947
 20
-539.0145050482
 10
831.0439380655
 20
-538.3871978191
 10
831.8268105082
 20
-537.9347010512
 10
832.3046662083
 20
-537.6583028126
 10
832.4761511982
 20
-537.5587619198
 10
832.3407913258
 20
-537.6364265746
 10
831.8989711812
 20
-537.8910031732
 10
831.151913023
 20
-538.321787489
 10
830.1017558037
 20
-538.9275946979
 10
828.7514814129
 20
-539.7067046255
 10
827.1049252138
 20
-540.6568556569
 10
825.166728628
 20
-541.7754181254
 10
822.9423918194
 20
-543.059144866
 10
820.4382236442
 20
-544.5044677952
 10
817.6613232123
 20
-546.1072652074
 10
814.6195772528
 20
-547.8629606273
 10
811.321588991
 20
-549.7666612151
 10
807.7766992223
 20
-551.8128779063
 10
803.9949863117
 20
-553.9958904299
 10
799.9871516077
 20
-556.309448448
 10
795.7645536858
 20
-558.7470194573
 10
791.339151385
 20
-561.3017000044
 10
786.7235238933
 20
-563.966228413
  0
LWPOLYLINE
  5
CE
330
1F
100
AcDbEntity
  8
0
  6
Continuous
 62
     7
370
    25
100
AcDbPolyline
 90
      108
 70
   128
 43
0.0
 10
775.3735251033
 20
-570.520597593
 10
771.0400664819
 20
-573.0222178831
 10
766.5452367971
 20
-575.6171260747
 10
761.9045052595
 20
-578.296197138
 10
757.1338731835
 20
-581.0503394348
 10
752.2497989134
 20
-583.8700270312
 10
747.2691161641
 20
-586.7454928544
 10
742.2089945078
 20
-589.6668245045
 10
737.0868748374
 20
-592.624025849
 10
731.9204087798
 20
-595.6068329896
 10
726.7274007444
 20
-598.6049910651
 10
721.5257736784
 20
-601.6081280111
 10
716.3334347242
 20
-604.6059781398
 10
711.1683068291
 20
-607.5880961965
 10
706.0481654263
 20
-610.5443166841
 10
700.9907069241
 20
-613.464373622
 10
696.0133116289
 20
-616.3381591168
 10
691.1331649183
 20
-619.155872397
 10
686.3670833849
 20
-621.9077795139
 10
681.7315148362
 20
-624.5843106807
 10
677.2424171228
 20
-627.1763492495
 10
672.9152792115
 20
-629.6748545189
 10
668.76501055
 20
-632.071314976
 10
664.8059305301
 20
-634.3573893527
 10
661.0516420471
 20
-636.5252229901
 10
657.5151526721
 20
-638.5673778635
 10
654.2086059659
 20
-640.4767687221
 10
651.1434237244
 20
-642.2468242964
 10
648.3301426597
 20
-643.8714599342
 10
645.7784934255
 20
-645.345056303
 10
643.4972741764
 20
-646.662556737
 10
641.4943136896
 20
-647.819366865
 10
639.7765451215
 20
-648.8115553629
 10
638.3498848361
 20
-649.6356562505
 10
637.2192640147
 20
-650.2889183214
 10
636.3885548989
 20
-650.7689583818
 10
635.8606129377
 20
-651.0741992764
 10
635.6372873242
 20
-651.2035961271
 10
635.7193419699
 20
-651.1566819689
 10
636.1064923836
 20
-650.933619469
 10
636.7973951345
 20
-650.5352070095
 10
637.789658389
 20
-649.9627509423
 10
639.0799051308
 20
-649.2182967642
 10
640.6636493548
 20
-648.3043842715
 10
642.5354277757
 20
-647.2241175114
 10
644.6888103648
 20
-645.9812803851
 10
647.116379277
 20
-644.5801541428
 10
649.8097367526
 20
-643.0255128296
 10
652.7596131191
 20
-641.3227799387
 10
655.955849669
 20
-639.4777706253
 10
659.3874039279
 20
-637.4969320209
 10
663.0424807052
 20
-635.3869755463
 10
666.9084583368
 20
-633.1553088707
 10
670.9719981683
 20
-630.8094616665
 10
675.2191160071
 20
-628.3576527264
 10
679.6351720796
 20
-625.8083334118
 10
684.2049177876
 20
-623.1701606608
 10
688.9126121064
 20
-620.4523921427
 10
693.7420508899
 20
-617.6642609741
 10
698.6765499129
 20
-614.815496551
 10
703.6991239955
 20
-611.9158317624
 10
708.7924494658
 20
-608.9753166931
 10
713.9389537223
 20
-606.0040235647
 10
719.1209245518
 20
-603.0122512985
 10
724.3204916905
 20
-600.0103171592
 10
729.5197190203
 20
-597.0085035225
 10
734.7006677887
 20
-594.0172160501
 10
739.8455335864
 20
-591.0467829279
 10
744.936525175
 20
-588.1073788326
 10
749.9561200023
 20
-585.2091937425
 10
754.8870009817
 20
-582.3622017629
 10
759.7121934702
 20
-579.5762037126
 10
764.4150547309
 20
-576.8608332074
 10
768.9793529587
 20
-574.2254380307
 10
773.3893568425
 20
-571.6790284146
 10
777.6298882485
 20
-569.2305143058
 10
781.6863222201
 20
-566.8882430077
 10
785.5446818088
 20
-564.6603337772
 10
789.1916275371
 20
-562.5544162287
 10
792.6146312541
 20
-560.5777976241
 10
795.8018813056
 20
-558.7372742855
 10
798.7423720958
 20
-557.0392015538
 10
801.425988381
 20
-555.4894207728
 10
803.8434578546
 20
-554.093262338
 10
805.9864828558
 20
-552.8555913097
 10
807.8476297341
 20
-551.7806279564
 10
809.4205237788
 20
-550.872054195
 10
810.6997175096
 20
-550.1330896481
 10
811.6808171176
 20
-549.5661752796
 10
812.3604297814
 20
-549.1733688346
 10
812.7362216195
 20
-548.9559220114
 10
812.8068966161
 20
-548.9146576533
 10
812.5722018901
 20
-549.0497476819
 10
812.0329276951
 20
-549.360615758
 10
811.1909864442
 20
-549.8462323248
 10
810.0492388547
 20
-550.504995987
 10
808.6116361938
 20
-551.3345296846
 10
806.8831201794
 20
-552.3320791819
 10
804.8696703956
 20
-553.4941206531
 10
802.5782094623
 20
-554.8166831219
 10
800.0166372795
 20
-556.2951826677
 10
797.1937967827
 20
-557.9245882035
 10
794.1194159915
 20
-559.6992115822
 10
790.8040895699
 20
-561.6129372517
 10
787.259256436
 20
-563.6592108407
 10
783.4971181025
 20
-565.8310133004
 10
779.5306413106
 20
-568.1207133659
 10
775.3735251033
 20
-570.520597593
  0
LWPOLYLINE
  5
CF
330
1F
100
AcDbEntity
  8
0
  6
Continuous
 62
     7
370
    25
100
AcDbPolyline
 90
      119
 70
   128
 43
0.0
 10
889.3351685086
 20
-1271.4308838487
 10
884.7562193118
 20
-1268.6428779592
 10
880.4407992123
 20
-1265.7181360708
 10
876.4011396863
 20
-1262.6649479726
 10
872.6486832741
 20
-1259.4919752601
 10
869.1940773233
 20
-1256.2082051438
 10
866.047106488
 20
-1252.8229479784
 10
863.216700632
 20
-1249.345799246
 10
860.7108729246
 20
-1245.7866159854
 10
858.5367303784
 20
-1242.1554863784
 10
856.7004317014
 20
-1238.4627054192
 10
855.2071899321
 20
-1234.7187399388
 10
854.0612329262
 20
-1230.9341997116
 10
853.2658112593
 20
-1227.1198116048
 10
852.8231797879
 20
-1223.2863967671
 10
852.7345923807
 20
-1219.444812844
 10
853.0002966504
 20
-1215.6059509356
 10
853.6195444905
 20
-1211.780693018
 10
854.5905762701
 20
-1207.9798845711
 10
855.9106419072
 20
-1204.2142919995
 10
857.5760035033
 20
-1200.4946011116
 10
859.5819300746
 20
-1196.831347169
 10
861.9227476017
 20
-1193.2349164066
 10
864.5918100533
 20
-1189.7155019329
 10
867.5815626068
 20
-1186.2830854825
 10
870.8835192578
 20
-1182.947389514
 10
874.488324723
 20
-1179.7178718881
 10
878.3857662941
 20
-1176.6036886106
 10
882.564789643
 20
-1173.6136664605
 10
887.0135501882
 20
-1170.7562794195
 10
891.7194381194
 20
-1168.0396281423
 10
896.6691139591
 20
-1165.4714133456
 10
901.848545441
 20
-1163.0589145177
 10
907.2430536079
 20
-1160.8089693902
 10
912.8373483734
 20
-1158.7279594907
 10
918.6155693517
 20
-1156.8217804902
 10
924.5613332725
 20
-1155.0958330788
 10
930.6577985184
 20
-1153.5550161227
 10
936.8876743449
 20
-1152.2036909281
 10
943.2333038567
 20
-1151.0456941672
 10
949.6766956178
 20
-1150.0843013816
 10
956.1996000428
 20
-1149.3222437101
 10
962.7835067627
 20
-1148.7616789957
 10
969.4097657969
 20
-1148.4041948269
 10
976.0595901879
 20
-1148.2508070169
 10
982.7141297575
 20
-1148.3019474386
 10
989.3545185227
 20
-1148.557473148
 10
995.9619484524
 20
-1149.0166603022
 10
1002.5176747356
 20
-1149.6782072003
 10
1009.0031158807
 20
-1150.5402373249
 10
1015.3998932273
 20
-1151.6003099868
 10
1021.6898757282
 20
-1152.8554157631
 10
1027.855229998
 20
-1154.3019993072
 10
1033.8784808997
 20
-1155.9359578281
 10
1039.7425536913
 20
-1157.7526654216
 10
1045.4308267095
 20
-1159.7469669871
 10
1050.9271721991
 20
-1161.913213964
 10
1056.216022168
 20
-1164.2452597693
 10
1061.2823726675
 20
-1166.7364987653
 10
1066.1118638053
 20
-1169.3798698709
 10
1070.690813002
 20
-1172.1678757603
 10
1075.0062331016
 20
-1175.0926176488
 10
1079.0458926276
 20
-1178.1458057469
 10
1082.7983490398
 20
-1181.3187784594
 10
1086.2529549906
 20
-1184.6025485758
 10
1089.3999258259
 20
-1187.9878057412
 10
1092.2303316819
 20
-1191.4649544735
 10
1094.7361593892
 20
-1195.0241377342
 10
1096.9103019355
 20
-1198.6552673411
 10
1098.7466006124
 20
-1202.3480483003
 10
1100.2398423818
 20
-1206.0920137808
 10
1101.3857993877
 20
-1209.8765540079
 10
1102.1812210546
 20
-1213.6909421148
 10
1102.623852526
 20
-1217.5243569524
 10
1102.7124399332
 20
-1221.3659408755
 10
1102.4467356635
 20
-1225.2048027839
 10
1101.8274878234
 20
-1229.0300607015
 10
1100.8564560438
 20
-1232.8308691484
 10
1099.5363904067
 20
-1236.5964617201
 10
1097.8710288106
 20
-1240.3161526079
 10
1095.8651022393
 20
-1243.9794065505
 10
1093.5242847122
 20
-1247.575837313
 10
1090.8552222606
 20
-1251.0952517866
 10
1087.865469707
 20
-1254.527668237
 10
1084.563513056
 20
-1257.8633642055
 10
1080.9587075909
 20
-1261.0928818314
 10
1077.0612660198
 20
-1264.2070651089
 10
1072.8822426709
 20
-1267.197087259
 10
1068.4334821257
 20
-1270.0544743001
 10
1063.7275941945
 20
-1272.7711255772
 10
1058.7779183548
 20
-1275.339340374
 10
1053.5984868729
 20
-1277.7518392018
 10
1048.203978706
 20
-1280.0017843294
 10
1042.6096839404
 20
-1282.0827942289
 10
1036.8314629622
 20
-1283.9889732293
 10
1030.8856990414
 20
-1285.7149206407
 10
1024.7892337955
 20
-1287.2557375968
 10
1018.5593579689
 20
-1288.6070627914
 10
1012.2137284571
 20
-1289.7650595524
 10
1005.770336696
 20
-1290.726452338
 10
999.2474322711
 20
-1291.4885100094
 10
992.6635255512
 20
-1292.0490747238
 10
986.0372665169
 20
-1292.4065588926
 10
979.387442126
 20
-1292.5599467026
 10
972.7329025564
 20
-1292.508806281
 10
966.0925137912
 20
-1292.2532805715
 10
959.4850838615
 20
-1291.7940934173
 10
952.9293575782
 20
-1291.1325465192
 10
946.4439164332
 20
-1290.2705163946
 10
940.0471390866
 20
-1289.2104437327
 10
933.7571565857
 20
-1287.9553379564
 10
927.5918023159
 20
-1286.5087544124
 10
921.5685514142
 20
-1284.8747958915
 10
915.7044786225
 20
-1283.058088298
 10
910.0162056044
 20
-1281.0637867325
 10
904.5198601148
 20
-1278.8975397556
 10
899.2310101459
 20
-1276.5654939502
 10
894.1646596464
 20
-1274.0742549543
 10
889.3351685086
 20
-1271.4308838487
  0
LWPOLYLINE
  5
D0
330
1F
100
AcDbEntity
  8
0
  6
Continuous
 62
     7
370
    25
100
AcDbPolyline
 90
       52
 70
   128
 43
0.0
 10
865.0239285202
 20
-593.9319283738
 10
867.5815626068
 20
-591.0248562005
 10
870.8835192578
 20
-587.689160232
 10
874.488324723
 20
-584.4596426061
 10
878.3857662941
 20
-581.3454593286
 10
882.564789643
 20
-578.3554371785
 10
887.0135501882
 20
-575.4980501374
 10
891.7194381194
 20
-572.7813988603
 10
896.6691139591
 20
-570.2131840635
 10
901.848545441
 20
-567.8006852357
 10
907.2430536079
 20
-565.5507401082
 10
912.8373483734
 20
-563.4697302087
 10
918.6155693517
 20
-561.5635512082
 10
924.5613332725
 20
-559.8376037968
 10
930.6577985184
 20
-558.2967868407
 10
936.8876743449
 20
-556.9454616461
 10
943.2333038567
 20
-555.7874648852
 10
949.6766956178
 20
-554.8260720996
 10
956.1996000428
 20
-554.0640144281
 10
962.7835067627
 20
-553.5034497137
 10
969.4097657969
 20
-553.1459655449
 10
976.0595901879
 20
-552.9925777349
 10
982.7141297575
 20
-553.0437181566
 10
989.3545185227
 20
-553.299243866
 10
995.9619484524
 20
-553.7584310202
 10
1002.5176747356
 20
-554.4199779183
 10
1009.0031158807
 20
-555.2820080429
 10
1015.3998932273
 20
-556.3420807048
 10
1021.6898757282
 20
-557.5971864811
 10
1027.855229998
 20
-559.0437700252
 10
1033.8784808997
 20
-560.6777285461
 10
1039.7425536913
 20
-562.4944361395
 10
1045.4308267095
 20
-564.4887377051
 10
1050.9271721991
 20
-566.654984682
 10
1056.216022168
 20
-568.9870304873
 10
1061.2823726675
 20
-571.4782694833
 10
1066.1118638053
 20
-574.1216405888
 10
1070.690813002
 20
-576.9096464783
 10
1075.0062331016
 20
-579.8343883668
 10
1079.0458926276
 20
-582.8875764649
 10
1082.7983490398
 20
-586.0605491774
 10
1086.2529549906
 20
-589.3443192938
 10
1089.3999258259
 20
-592.7295764592
 10
1092.2303316819
 20
-596.2067251915
 10
1094.7361593892
 20
-599.7659084522
 10
1096.9103019355
 20
-603.3970380591
 10
1098.7466006124
 20
-607.0898190183
 10
1100.2398423818
 20
-610.8337844988
 10
1101.3857993877
 20
-614.6183247259
 10
1102.1812210546
 20
-618.4327128328
 10
1102.623852526
 20
-622.2661276704
 10
1102.7235140177
 20
-625.1471475778
  0
LWPOLYLINE
  5
D1
330
1F
100
AcDbEntity
  8
0
  6
Continuous
 62
     7
370
    25
100
AcDbPolyline
 90
      108
 70
   128
 43
0.0
 10
905.3864901993
 20
-1262.1646530739
 10
901.2658836996
 20
-1259.6419240554
 10
897.4088411999
 20
-1256.9839390383
 10
893.8286613481
 20
-1254.1998593509
 10
890.5376839511
 20
-1251.299284277
 10
887.5472570479
 20
-1248.2922077163
 10
884.8676815918
 20
-1245.1890044987
 10
882.5082035476
 20
-1242.0003649948
 10
880.4769493545
 20
-1238.7372821903
 10
878.7809232919
 20
-1235.4110075861
 10
877.4259758693
 20
-1232.033002537
 10
876.4167695817
 20
-1228.6149184825
 10
875.7567920809
 20
-1225.1685315578
 10
875.4483192966
 20
-1221.7057273867
 10
875.4924049001
 20
-1218.2384402551
 10
875.8889066459
 20
-1214.7786196555
 10
876.6364468587
 20
-1211.3381983529
 10
877.7324598491
 20
-1207.9290345991
 10
879.1731603034
 20
-1204.5628756364
 10
880.9535880643
 20
-1201.2513318459
 10
883.0675975944
 20
-1198.0058159207
 10
885.5079080258
 20
-1194.8375139725
 10
888.2661057936
 20
-1191.7573535979
 10
891.3326801982
 20
-1188.7759468525
 10
894.697057649
 20
-1185.9035704823
 10
898.3476497381
 20
-1183.1501320888
 10
902.2718667411
 20
-1180.5251197559
 10
906.4561813305
 20
-1178.0375835173
 10
910.8861656193
 20
-1175.6960957234
 10
915.5465556983
 20
-1173.5087320331
 10
920.4212812705
 20
-1171.483029975
 10
925.4935425362
 20
-1169.6259749763
 10
930.7458485533
 20
-1167.9439660527
 10
936.1600932991
 20
-1166.442802312
 10
941.7176188906
 20
-1165.1276586235
 10
947.3992669509
 20
-1164.0030681303
 10
953.185444464
 20
-1163.0729085626
 10
959.0562133361
 20
-1162.3403870318
 10
964.9913272751
 20
-1161.8080248229
 10
970.9703371568
 20
-1161.4776634777
 10
976.9726226355
 20
-1161.3504343812
 10
982.9775001455
 20
-1161.4267815715
 10
988.9642597789
 20
-1161.7064404504
 10
994.912278556
 20
-1162.1884484285
 10
1000.8010414983
 20
-1162.871138842
 10
1006.6102469957
 20
-1163.7521652838
 10
1012.3198805635
 20
-1164.8284833553
 10
1017.9102490867
 20
-1166.0963886834
 10
1023.3620888214
 20
-1167.5515062758
 10
1028.6565956876
 20
-1169.1888262568
 10
1033.7755306368
 20
-1171.0026977847
 10
1038.7012453346
 20
-1172.9868682092
 10
1043.4167506498
 20
-1175.1345043609
 10
1047.9058050639
 20
-1177.4381949276
 10
1052.1529229028
 20
-1179.8900038677
 10
1056.1434643927
 20
-1182.4814798199
 10
1059.863682417
 20
-1185.2036830946
 10
1063.3007388153
 20
-1188.0472376629
 10
1066.4427969085
 20
-1191.002335908
 10
1069.2790256151
 20
-1194.0587896635
 10
1071.7996363295
 20
-1197.2060697506
 10
1073.9959507523
 20
-1200.433320805
 10
1075.8603903532
 20
-1203.7294221042
 10
1077.3865382745
 20
-1207.0830050548
 10
1078.5691208918
 20
-1210.4825155408
 10
1079.4040736684
 20
-1213.9162336921
 10
1079.8885095451
 20
-1217.3723164637
 10
1080.0207610874
 20
-1220.8388584628
 10
1079.8003699482
 20
-1224.3039041141
 10
1079.2281053075
 20
-1227.7555130492
 10
1078.3059269937
 20
-1231.181781396
 10
1077.0370249965
 20
-1234.5709041264
 10
1075.425766783
 20
-1237.9111933046
 10
1073.4777078347
 20
-1241.1911389143
 10
1071.1995653055
 20
-1244.3994301478
 10
1068.5991916803
 20
-1247.5250071098
 10
1065.6855510668
 20
-1250.5570988336
 10
1062.4686889029
 20
-1253.4852529348
 10
1058.9596898098
 20
-1256.2993721074
 10
1055.1706542137
 20
-1258.9897580335
 10
1051.1146389117
 20
-1261.5471335282
 10
1046.805632871
 20
-1263.9626869241
 10
1042.2584854471
 20
-1266.2280891795
 10
1037.4888734565
 20
-1268.3355311344
 10
1032.5132325239
 20
-1270.2777448955
 10
1027.3487249777
 20
-1272.0480406175
 10
1022.013152593
 20
-1273.6403142964
 10
1016.5248979812
 20
-1275.0490755221
 10
1010.9028903457
 20
-1276.2694672471
 10
1005.1665067
 20
-1277.2972863157
 10
999.3355165503
 20
-1278.1289849847
 10
993.4300318458
 20
-1278.7616998164
 10
987.4704016119
 20
-1279.1932455955
 10
981.4771671689
 20
-1279.4221411812
 10
975.4709989117
 20
-1279.4475912584
 10
969.4725962114
 20
-1279.2695137105
 10
963.502632097
 20
-1278.888516809
 10
957.5816953043
 20
-1278.3059144202
 10
951.7301849077
 20
-1277.5237199226
 10
945.9682839794
 20
-1276.5446249173
 10
940.3158463193
 20
-1275.3720068315
 10
934.7923622105
 20
-1274.0099091497
 10
929.416874126
 20
-1272.4630231652
 10
924.2079003376
 20
-1270.7366864602
 10
919.1834125246
 20
-1268.8368456481
 10
914.3607225053
 20
-1266.7700518126
 10
909.7564585283
 20
-1264.5434285726
 10
905.3864901993
 20
-1262.1646530739
  0
ENDSEC
  0
SECTION
  2
OBJECTS
  0
DICTIONARY
  5
C
330
0
100
AcDbDictionary
281
     1
  3
ACAD_GROUP
350
D
  3
ACAD_LAYOUT
350
1A
  3
ACAD_MLINESTYLE
350
17
  3
ACAD_PLOTSETTINGS
350
19
  3
ACAD_PLOTSTYLENAME
350
E
  3
ACAD_SCALELIST
350
47
  0
DICTIONARY
  5
D
102
{ACAD_REACTORS
330
C
102
}
330
C
100
AcDbDictionary
281
     1
  0
DICTIONARY
  5
1A
102
{ACAD_REACTORS
330
C
102
}
330
C
100
AcDbDictionary
281
     1
  3
Layout1
350
1E
  3
Layout2
350
26
  3
Model
350
22
  0
DICTIONARY
  5
17
102
{ACAD_REACTORS
330
C
102
}
330
C
100
AcDbDictionary
281
     1
  3
Standard
350
18
  0
DICTIONARY
  5
19
102
{ACAD_REACTORS
330
C
102
}
330
C
100
AcDbDictionary
281
     1
  0
ACDBDICTIONARYWDFLT
  5
E
102
{ACAD_REACTORS
330
C
102
}
330
C
100
AcDbDictionary
281
     1
  3
Normal
350
F
100
AcDbDictionaryWithDefault
340
F
  0
DICTIONARY
  5
47
102
{ACAD_REACTORS
330
C
102
}
330
C
100
AcDbDictionary
281
     1
  3
A0
350
48
  3
A1
350
49
  3
A2
350
4A
  3
A3
350
4B
  3
A4
350
4C
  3
A5
350
4D
  3
A6
350
4E
  3
A7
350
4F
  3
A8
350
50
  3
A9
350
51
  3
B0
350
52
  3
B1
350
53
  3
B2
350
54
  3
B3
350
55
  3
B4
350
56
  3
B5
350
57
  3
B6
350
58
  3
B7
350
59
  3
B8
350
5A
  3
B9
350
5B
  3
C0
350
5C
  3
C1
350
5D
  3
C2
350
5E
  3
C3
350
5F
  3
C4
350
60
  3
C5
350
61
  3
C6
350
62
  3
C7
350
63
  3
C8
350
64
  3
C9
350
65
  3
D0
350
66
  3
D1
350
67
  3
D2
350
68
  0
LAYOUT
  5
1E
102
{ACAD_REACTORS
330
1A
102
}
330
1A
100
AcDbPlotSettings
  1

  2
none_device
  4

  6

 40
0.0
 41
0.0
 42
0.0
 43
0.0
 44
0.0
 45
0.0
 46
0.0
 47
0.0
 48
0.0
 49
0.0
140
0.0
141
0.0
142
1.0
143
1.0
 70
   688
 72
     1
 73
     0
 74
     5
  7

 75
    16
147
1.0
148
0.0
149
0.0
100
AcDbLayout
  1
Layout1
 70
     1
 71
     1
 10
0.0
 20
0.0
 11
420.0
 21
297.0
 12
0.0
 22
0.0
 32
0.0
 14
1.0000000000E+20
 24
1.0000000000E+20
 34
1.0000000000E+20
 15
-1.0000000000E+20
 25
-1.0000000000E+20
 35
-1.0000000000E+20
146
0.0
 13
0.0
 23
0.0
 33
0.0
 16
1.0
 26
0.0
 36
0.0
 17
0.0
 27
1.0
 37
0.0
 76
     0
330
1B
  0
LAYOUT
  5
26
102
{ACAD_REACTORS
330
1A
102
}
330
1A
100
AcDbPlotSettings
  1

  2
none_device
  4

  6

 40
0.0
 41
0.0
 42
0.0
 43
0.0
 44
0.0
 45
0.0
 46
0.0
 47
0.0
 48
0.0
 49
0.0
140
0.0
141
0.0
142
1.0
143
1.0
 70
   688
 72
     1
 73
     0
 74
     5
  7

 75
    16
147
1.0
148
0.0
149
0.0
100
AcDbLayout
  1
Layout2
 70
     1
 71
     2
 10
0.0
 20
0.0
 11
0.0
 21
0.0
 12
0.0
 22
0.0
 32
0.0
 14
0.0
 24
0.0
 34
0.0
 15
0.0
 25
0.0
 35
0.0
146
0.0
 13
0.0
 23
0.0
 33
0.0
 16
1.0
 26
0.0
 36
0.0
 17
0.0
 27
1.0
 37
0.0
 76
     0
330
23
  0
LAYOUT
  5
22
102
{ACAD_REACTORS
330
1A
102
}
330
1A
100
AcDbPlotSettings
  1

  2
none_device
  4
Letter_(8.50_x_11.00_Inches)
  6

 40
6.35
 41
6.35
 42
6.35000508
 43
6.35000508
 44
215.9
 45
279.4
 46
0.0
 47
0.0
 48
0.0
 49
0.0
140
0.0
141
0.0
142
1.0
143
1.0
 70
  1712
 72
     1
 73
     0
 74
     0
  7

 75
     0
147
1.0
148
0.0
149
0.0
100
AcDbLayout
  1
Model
 70
     1
 71
     0
 10
0.0
 20
0.0
 11
279.4
 21
215.9
 12
0.0
 22
0.0
 32
0.0
 14
0.0
 24
0.0
 34
0.0
 15
279.4
 25
215.9
 35
0.0
146
0.0
 13
0.0
 23
0.0
 33
0.0
 16
1.0
 26
0.0
 36
0.0
 17
0.0
 27
1.0
 37
0.0
 76
     0
330
1F
331
29
  0
MLINESTYLE
  5
18
102
{ACAD_REACTORS
330
17
102
}
330
17
100
AcDbMlineStyle
  2
Standard
 70
     0
  3

 62
   256
 51
90.0
 52
90.0
 71
     2
 49
0.5
 62
   256
  6
BYLAYER
 49
-0.5
 62
   256
  6
BYLAYER
  0
ACDBPLACEHOLDER
  5
F
102
{ACAD_REACTORS
330
E
102
}
330
E
  0
SCALE
  5
48
102
{ACAD_REACTORS
330
47
102
}
330
47
100
AcDbScale
 70
     0
300
1:1
140
1.0
141
1.0
290
     1
  0
SCALE
  5
49
102
{ACAD_REACTORS
330
47
102
}
330
47
100
AcDbScale
 70
     0
300
1:2
140
1.0
141
2.0
290
     0
  0
SCALE
  5
4A
102
{ACAD_REACTORS
330
47
102
}
330
47
100
AcDbScale
 70
     0
300
1:4
140
1.0
141
4.0
290
     0
  0
SCALE
  5
4B
102
{ACAD_REACTORS
330
47
102
}
330
47
100
AcDbScale
 70
     0
300
1:5
140
1.0
141
5.0
290
     0
  0
SCALE
  5
4C
102
{ACAD_REACTORS
330
47
102
}
330
47
100
AcDbScale
 70
     0
300
1:8
140
1.0
141
8.0
290
     0
  0
SCALE
  5
4D
102
{ACAD_REACTORS
330
47
102
}
330
47
100
AcDbScale
 70
     0
300
1:10
140
1.0
141
10.0
290
     0
  0
SCALE
  5
4E
102
{ACAD_REACTORS
330
47
102
}
330
47
100
AcDbScale
 70
     0
300
1:16
140
1.0
141
16.0
290
     0
  0
SCALE
  5
4F
102
{ACAD_REACTORS
330
47
102
}
330
47
100
AcDbScale
 70
     0
300
1:20
140
1.0
141
20.0
290
     0
  0
SCALE
  5
50
102
{ACAD_REACTORS
330
47
102
}
330
47
100
AcDbScale
 70
     0
300
1:30
140
1.0
141
30.0
290
     0
  0
SCALE
  5
51
102
{ACAD_REACTORS
330
47
102
}
330
47
100
AcDbScale
 70
     0
300
1:40
140
1.0
141
40.0
290
     0
  0
SCALE
  5
52
102
{ACAD_REACTORS
330
47
102
}
330
47
100
AcDbScale
 70
     0
300
1:50
140
1.0
141
50.0
290
     0
  0
SCALE
  5
53
102
{ACAD_REACTORS
330
47
102
}
330
47
100
AcDbScale
 70
     0
300
1:100
140
1.0
141
100.0
290
     0
  0
SCALE
  5
54
102
{ACAD_REACTORS
330
47
102
}
330
47
100
AcDbScale
 70
     0
300
2:1
140
2.0
141
1.0
290
     0
  0
SCALE
  5
55
102
{ACAD_REACTORS
330
47
102
}
330
47
100
AcDbScale
 70
     0
300
4:1
140
4.0
141
1.0
290
     0
  0
SCALE
  5
56
102
{ACAD_REACTORS
330
47
102
}
330
47
100
AcDbScale
 70
     0
300
8:1
140
8.0
141
1.0
290
     0
  0
SCALE
  5
57
102
{ACAD_REACTORS
330
47
102
}
330
47
100
AcDbScale
 70
     0
300
10:1
140
10.0
141
1.0
290
     0
  0
SCALE
  5
58
102
{ACAD_REACTORS
330
47
102
}
330
47
100
AcDbScale
 70
     0
300
100:1
140
100.0
141
1.0
290
     0
  0
SCALE
  5
59
102
{ACAD_REACTORS
330
47
102
}
330
47
100
AcDbScale
 70
     0
300
1/128" = 1'-0"
140
0.0078125
141
12.0
290
     0
  0
SCALE
  5
5A
102
{ACAD_REACTORS
330
47
102
}
330
47
100
AcDbScale
 70
     0
300
1/64" = 1'-0"
140
0.015625
141
12.0
290
     0
  0
SCALE
  5
5B
102
{ACAD_REACTORS
330
47
102
}
330
47
100
AcDbScale
 70
     0
300
1/32" = 1'-0"
140
0.03125
141
12.0
290
     0
  0
SCALE
  5
5C
102
{ACAD_REACTORS
330
47
102
}
330
47
100
AcDbScale
 70
     0
300
1/16" = 1'-0"
140
0.0625
141
12.0
290
     0
  0
SCALE
  5
5D
102
{ACAD_REACTORS
330
47
102
}
330
47
100
AcDbScale
 70
     0
300
3/32" = 1'-0"
140
0.09375
141
12.0
290
     0
  0
SCALE
  5
5E
102
{ACAD_REACTORS
330
47
102
}
330
47
100
AcDbScale
 70
     0
300
1/8" = 1'-0"
140
0.125
141
12.0
290
     0
  0
SCALE
  5
5F
102
{ACAD_REACTORS
330
47
102
}
330
47
100
AcDbScale
 70
     0
300
3/16" = 1'-0"
140
0.1875
141
12.0
290
     0
  0
SCALE
  5
60
102
{ACAD_REACTORS
330
47
102
}
330
47
100
AcDbScale
 70
     0
300
1/4" = 1'-0"
140
0.25
141
12.0
290
     0
  0
SCALE
  5
61
102
{ACAD_REACTORS
330
47
102
}
330
47
100
AcDbScale
 70
     0
300
3/8" = 1'-0"
140
0.375
141
12.0
290
     0
  0
SCALE
  5
62
102
{ACAD_REACTORS
330
47
102
}
330
47
100
AcDbScale
 70
     0
300
1/2" = 1'-0"
140
0.5
141
12.0
290
     0
  0
SCALE
  5
63
102
{ACAD_REACTORS
330
47
102
}
330
47
100
AcDbScale
 70
     0
300
3/4" = 1'-0"
140
0.75
141
12.0
290
     0
  0
SCALE
  5
64
102
{ACAD_REACTORS
330
47
102
}
330
47
100
AcDbScale
 70
     0
300
1" = 1'-0"
140
1.0
141
12.0
290
     0
  0
SCALE
  5
65
102
{ACAD_REACTORS
330
47
102
}
330
47
100
AcDbScale
 70
     0
300
1-1/2" = 1'-0"
140
1.5
141
12.0
290
     0
  0
SCALE
  5
66
102
{ACAD_REACTORS
330
47
102
}
330
47
100
AcDbScale
 70
     0
300
3" = 1'-0"
140
3.0
141
12.0
290
     0
  0
SCALE
  5
67
102
{ACAD_REACTORS
330
47
102
}
330
47
100
AcDbScale
 70
     0
300
6" = 1'-0"
140
6.0
141
12.0
290
     0
  0
SCALE
  5
68
102
{ACAD_REACTORS
330
47
102
}
330
47
100
AcDbScale
 70
     0
300
1'-0" = 1'-0"
140
12.0
141
12.0
290
     0
  0
ENDSEC
  0
EOF
